The Trews - Making Sunshine Chords & Tabs

 

Making Sunshine Chords & Tabs

The Trews Chords & Tabs

Version: 1 Type: Tab

Making Sunshine Tab

   
-------------------------------------------------------------------------------
			    MAKING SUNSHINE - The Trews
-------------------------------------------------------------------------------
Tabbed by: Barry Miles
Email: shoebox_of_lies@hotmail.com

Tuning: Standard

Intro/Verse:

e|-----------------------------7---|
B|-0---0---0---0---0---0---9p7-----|
G|---------------------------------|
D|---------------------------------|
A|---------------------------------|
E|---------------------------------|
  “Tomorrow’s always far away...”

Prechorus:

e|-----------------------------------------|
B|-----------------------------------------|
G|-----------------------------------------|
D|-9-9-9-9-9-9-9-9-9--9--9--9--9--9--9--9--|
A|-7-7-7-7-9-9-9-9-11-11-11-11-13-13-13-13-|
E|-----------------------------------------|
  “Though it’s raining, don’t stay in...”

Chorus:
[ Tab from: http://www.guitartabs.cc/tabs/t/the_trews/making_sunshine_tab.html ]
e|---------------------0--|
B|---------------------5--|
G|-----------1-3-4-----4--|
D|-----1-2-4-------2---2--|
A|-2-4-------------2------|
E|-----------------0------|
  “I’m right on time”

e|----------------0--------------------0-------------|
B|-4--4--2--2-----0-----4--4--2--2-----0-------------|
G|-4--4--3--3-----1-----4--4--3--3-----1-------------|
D|-4--4--4--4--2--2-----4--4--4--4--2--2-------------|
A|-2--2--4--4--2--2-----2--2--4--4--2--2-----------1-|
E|-------2--2--0--0-----------2--2--0--0-----0-2-4---|
  “I’m makin’ sunshine  I’m makin’ sunshine

Bridge:

e|---------------------------------|
B|---------------------------------|
G|-4-4-4-4-------------------------|
D|-4-4-4-4-4-4-4-4-5-5-5-5-2-2-2-2-|
A|-2-2-2-2-4-4-4-4-5-5-5-5-2-2-2-2-|
E|---------2-2-2-2-3-3-3-3-0-0-0-0-|

That’s all the parts, you should be able to figure out the order.

===============================================================================