The Trews - Every Inhambition Chords & Tabs

 

Every Inhambition Chords & Tabs

The Trews Chords & Tabs

Version: 1 Type: Tab 0 ratings
1 star 2 stars 3 stars 4 stars 5 stars
comments

Every Inhambition Tab

   
-------------------------------------------------------------------------------
			     Every Inhambition - The Trews
-------------------------------------------------------------------------------
Tabbed by: dbe43
Email: dbe43@hotmail.com

Tuning: Standard

Listen to the song for timing!  Sorry no solo... I cannot figure out the very last part.


Main Riff 1)
e|---------------------------------------------------------------------------|
B|---------------------------------------------------------------------------|
G|---------------------------------------------------------------------------|
D|-7-7-5---------------------------------------------------------------------|
A|-7-7---7-5-----------------------------------------------------------------|
E|-5-5-------8---------------------------------------------------------------|

Filler 1)                           Filler 2)

e|---------------------------------------------------------------------------|
B|---------------------------------------------------------------------------|
G|--------------------------------------7-7-7--------------------------------
D|-7-7-7--------------------------------7-7-7--------------------------------
A|-7-7-7--------------------------------5-5-5--------------------------------|
E|-5-5-5---------------------------------------------------------------------|

Chorus
[ Tab from: http://www.guitartabs.cc/tabs/t/the_trews/every_inhambition_tab.html ]
e|---------------------------------------------------------------------------|
B|---------------------------------------------------------------------------|
G|-----7-7-7-7-7-7-----------------------------------------------------------|
D|-7-7-7-7-5-5-7-7-----------------------------------------------------------|
A|-7-7-5-5-----5-5-----------------------------------------------------------|
E|-5-5-----------------------------------------------------------------------|

Bridge)

e|---------------------------------------------------------------------------|
B|---------------------------------------------------------------------------|
G|-5-5-4-4-2-2---------------------------------------------------------------|
D|-5-5-4-4-2-2---------------------------------------------------------------|
A|-3-3-2-2-0-0---------------------------------------------------------------|
E|---------------------------------------------------------------------------|

Chorus 2)

e|---------------------------------------------------------------------------|
B|---------------------------------------------------------------------------|
G|-----9-9-9-9---------------------------------------------------------------|
D|-9-9-9-9-7-7---------------------------------------------------------------|
A|-9-9-7-7-------------------------------------------------------------------|
E|-7-7-----------------------------------------------------------------------|

THATS IT...  A SURPRISINGLY EASY SONG DESPITE HOW HARD IT SOUNDS!

| /  slide up
| \  slide down
| h  hammer-on
| p  pull-off
| ~  vibrato
| +  harmonic
| x  Mute note
===============================================================================
Comments