The Trews - Confessions Chords & Tabs

 

Confessions Chords & Tabs

The Trews Chords & Tabs

Version: 2 Type: Tab 0 ratings
1 star 2 stars 3 stars 4 stars 5 stars
comments

Confessions Tab

Confessions - The Trews
Standard Tuning
Tabbed By YoYoJoe

Update - 08/18/05 - fixed up the solo
Intro/Chorus
|------2-2-3-3--2-2-|
|-2-2--3-3-3-3--3-3-|
|-2-2--2-2-0-0--2-2-|
|-2-2--0-0-0-0--0-0-|
|-0-0------x-x------|
|----------3-3------|

|-------------------|
|-------------------|
|-------------------|
|-2-2--4-4------4-4-|
|-0-0--2-2-2-2--2-2-|
|----------0-0------|

Verse
|-----------|
|-----------|
|----7-9--7-|
|-7--4-6--4-|
|-4--5-7--5-|
|-5---------|

|----2-3--2----2-3...--|
|-2--3-0--3-2--3-0...--|
|-2----0----2----0...--|
|----------------------|
|----------------------|
|----------------------|

Solo
|-----------------------------------------------7---|
|-----------------------------------------------7---|
|-----------------------------------------------8-8-|
|-9hb-r-7~~-7-----------------------------------9-9-|
|-------------10hb-r-7~~-7--------------------------|
|--------------------------8hb-r-5~~-5-3hb-r-0------|
[ Tab from: http://www.guitartabs.cc/tabs/t/the_trews/confessions_tab_ver_2.html ]
|------------------------------------------------------------7---7---------|
|-------------------------------------------------------8-10---8---10-8-10-|
|---------------------------------7--------------7-9-10--------------------|
|------------------------------------------7-9-7---------------------------|
|-7-8-10-8-7-10-8-7-10-8-7-10-8-7---8-8-10---------------------------------|
|--------------------------------------------------------------------------|

|-7-8-10-12-12-10-10-12-12-8-10-8-|
|---------------------------------|
|---------------------------------|
|---------------------------------|
|---------------------------------|
|---------------------------------|

Licks in the outro (On top of chorus)
|-------------|
|-------------|
|-9hb-7-9hb-7-|
|-9hb-7-9hb-7-|
|-------------|
|-------------|

|-/12-12~~-10-12\-|
|-----------------|
|-----------------|
|-----------------|
|-----------------|
|-----------------|

|-12--12-10----------------|
|-----------12-11----------|
|-----------------12-10----|
|-----------------------12-|
|--------------------------|
|--------------------------|

|------------------------|
|------------------------|
|------------------------|
|-9hb-9hb-9hb-9hb-9hb-9\-|
|------------------------|
|------------------------|
Comments