The Totems - Hopscotch Chords & Tabs

 

Hopscotch Chords & Tabs

The Totems Chords & Tabs

Version: 1 Type: Tab 1 rating
1 star 2 stars 3 stars 4 stars 5 stars
comments

Hopscotch Tab

A good old song from the awesome Totems.  It's pretty simple:

1st Part:

e|---------
b|-----5--3
g|-----5--3  8x
d|-----5--3
a|--3------
E|---------

e|---------
b|-----10--8
g|-----10--8  2x
d|-----10--8
a|--8------
E|---------

e|---------
b|-----5--3
g|-----5--3  8x
d|-----5--3
a|--3------
E|---------

Then play:
[ Tab from: http://www.guitartabs.cc/tabs/t/the_totems/hopscotch_tab.html ]
e|--6--------
b|--6-----6--
g|--6-----5--
d|--5-----4--
a|--6-----5--
E|-----------

The lead part in the song is:

e|--------------11-----------------------------
b|------11--13----------8----------------------
g|--12---------------------10p8-------------8--
d|-------------------------------10--8--10-----
a|---------------------------------------------
E|---------------------------------------------

Thats an awesome song.  To hear it go to www.geocities.com/thetotems
Phat band.
Comments