The Temper Trap - Love Lost Chords & Tabs

 

Love Lost Chords & Tabs

The Temper Trap Chords & Tabs

Version: 3 Type: Bass Tab 0 ratings
1 star 2 stars 3 stars 4 stars 5 stars
comments

Love Lost Bass Tab

Love Lost Bass TabŪ

@wrennaboy

Starts at 0.48

x2
G|----------------------------|
D|----------------------------|
A|----------------------------|
E|--7(x8)-3(x8)-10(x16)-------|

x2
G|-------------------------|
D|---------7-9/------------|
A|-----9-------------------|
E|--7-------------3-10-----|

Continues at 1.49
[ Tab from: http://www.guitartabs.cc/tabs/t/the_temper_trap/love_lost_btab_ver_3.html ]
x4
G|----------------------------|
D|----------------------------|
A|----------------------------|
E|--7(x8)-3(x8)-10(x16)-------|

2 second pause

x6
G|----------------------------|
D|----------------------------|
A|----------------------------|
E|--7(x8)-3(x8)-10(x16)-------|

x2
G|-------------------------|
D|---------7-9/------------|
A|-----9-------------------|
E|--7-------------3-10-----|
Comments