The Teenage Idols - Here She Comes Chords & Tabs

 

Here She Comes Chords & Tabs

The Teenage Idols Chords & Tabs

Version: 1 Type: Tab 0 ratings
1 star 2 stars 3 stars 4 stars 5 stars
comments

Here She Comes Tab

   
----------------------------------------------------------------------------
		     Here She Comes - The Teenage Idols
----------------------------------------------------------------------------
Tabbed by:ROCKETTARO86
E-mail:rockettaro86@yahoo.com

Tuning:E A D G B E

Ok.This is my first tab.This is a pretty punk song that is easy to play.
Play it with a lot of distortion.
In the video the guitarist play quite all the song upstroke.

ps:I fell in love with the bassist...

00.00 - 01.03
e|-------------------------------------------------------------------------|
B|-------------------------------------------------------------------------|
G|-------------------------------------------------------------------------|
D|-------------------------------------------------------------------------|
A|------------8--10v-------------------------------------------------------|
E|------------6---8v-------------------------------------------------------|
Repeat as necessary

01.03 - 01.13
e|-------------------------------------------------------------------------|
B|-------------------------------------------------------------------------|
G|-------------------------------------------------------------------------|
D|-------------------------------------------------------------------------|
A|------------8---6vv------------------------------------------------------|
E|------------6---4vv------------------------------------------------------|
Repeat as necessary

01.13 - 01.32
e|-------------------------------------------------------------------------|
B|-------------------------------------------------------------------------|
G|-------------------------------------------------------------------------|
D|-------------------------------------------------------------------------|
A|------------8--10v-------------------------------------------------------|
E|------------6---8v-------------------------------------------------------|

01.32 - 01.41
e|-------------------------------------------------------------------------|
B|-------------------------------------------------------------------------|
G|-------------------------------------------------------------------------|
D|-------------------------------------------------------------------------|
A|------------8---6vv------------8---3v-------------8----------------------|
E|------------6---4vv------------6---1v-------------6----------------------|
Repeat as necessary

01.41 - 01.47
e|-------------------------------------------------------------------------|
B|-------------------------------------------------------------------------|
G|-------------------------------------------------------------------------|
D|-------------------------------------------------------------------------|
A|-----------10-10-10--8---------------------------------------------------|
E|------------8--8--8--6---------------------------------------------------|
Repeat 4 times
[ Tab from: http://www.guitartabs.cc/tabs/t/the_teenage_idols/here_she_comes_tab.html ]
01.47 - 01.54
e|-------------------------------------------------------------------------|
B|-------------------------------------------------------------------------|
G|-------------------------------------------------------------------------|
D|-------------------------------------------------------------------------|
A|------------------6v-----------------------------------------------------|
E|------------8-8-8----8-6-------------------------------------------------|
Repeat 4 times

01.54 - 02.08
e|-------------------------------------------------------------------------|
B|-------------------------------------------------------------------------|
G|-------------------------------------------------------------------------|
D|-------------------------------------------------------------------------|
A|-----------------------------------------------8-8-8-8-------------------|
E|------------8-8-8-8--10-10-10-10--11-11-11-11----------------------------|
Repeat 3 times

02.08 - 02.17
e|------------6---8v-------------------------------------------------------|
B|------------6---8v-------------------------------------------------------|
G|------------7---9v-------------------------------------------------------|
D|------------8--10v-------------------------------------------------------|
A|------------8--10v-------------------------------------------------------|
E|------------6---8v-------------------------------------------------------|
Repeat 4 times

02.47 - 02.57
e|-------------------------------------------------------------------------|
B|-------------------------------------------------------------------------|
G|-------------------------------------------------------------------------|
D|-------------------------------------------------------------------------|
A|------------8--10v-------------------------------------------------------|
E|------------6---8v-------------------------------------------------------|
Repeat as necessary

02.57 - 03.05
e|-------------------------------------------------------------------------|
B|-------------------------------------------------------------------------|
G|-------------------------------------------------------------------------|
D|-------------------------------------------------------------------------|
A|------------8---6vv---------------8---3v---------------------------------|
E|------------6---4vv---------------6---1v---------------------------------|
Repeat as necessary

03.05 - 03.40
e|-------------------------------------------------------------------------|
B|-------------------------------------------------------------------------|
G|-------------------------------------------------------------------------|
D|-------------------------------------------------------------------------|
A|------------4---3v-------------------------------------------------------|
E|------------2---1v-------------------------------------------------------|
Repeat till the end

I've made all with a Notepad so excuse me for the frame.


ROCKETTARO86

If I Can't Go To Heaven
Will They Let Me Go To Hell?
(Queen - Stone Cold Crazy)

| v  let ring the note
| /  slide up
| \  slide down
| h  hammer-on
| p  pull-off
| ~  vibrato
| +  harmonic
| x  Mute note
============================================================================
Comments