The Tallest Man On Earth - The Gardner Chords & Tabs

 

The Gardner Chords & Tabs

The Tallest Man On Earth Chords & Tabs

Version: 1 Type: Tab

The Gardner Tab

This is the live version
This is purely a tab of the chords, strumming pattern isn't difficult figure out
Repeat as necessary

Tuning: DADEAD
Capo: 7

Intro
D -------------0--0--0--0--0--0--0--0--0--0-------------|
A -------------0--0--0--0--0--0--0--0--0--0-------------|
E -------------2--0--2--3--2--0--2--3--5--3-------------|
D -------------0--0--0--0--0--0--0--0--0--0-------------|
A -2--0--2--0--0--0--0--2--0--0--0--2--4--2-------------|
D -0--4--0--4--0--0--0--0--0--0--0--0--0--0-------------|

Verse
D 0--0--0--0--0--0--------------------------------------|
A 0--4--0--0--0--4--------------------------------------|
E 2--0--2--5--3--3--------------------------------------|
D 0--2--0--0--2--2--------------------------------------|
A 0--0--2--0--0--0--------------------------------------|
D 0--0--0--5--0--0--------------------------------------|
[ Tab from: http://www.guitartabs.cc/tabs/t/the_tallest_man_on_earth/the_gardner_tab.html ]
Chorus
D ---0--0--2--4-----0--0--4--7-----0--0--2--4-----0-----|
A ---0--0--0--0-----0--0--0--0-----0--0--0--0-----0-----|
E ---3--2--2--2-----3--2--2--2-----3--2--2--2-----3-----|
D 0--2--0--0--0--0--2--0--0--0--0--2--0--0--0--0--2-----|
A 2--0--0--0--0--2--0--0--0--0--2--0--0--0--0--2--0-----|
D 5--0--0--0--0--5--0--0--0--0--5--0--0--0--0--5--0-----|

Post-chorus (In your eyes babe...)
D 0--0--0--0--0--0--0-----------------------------------|
A 0--0--0--0--0--0--0-----------------------------------|
E 2--2--2--2--2--2--5-----------------------------------|
D 0--2--4--2--0--0--0-----------------------------------|
A 0--0--0--0--0--2--0-----------------------------------|
D 0--0--0--0--0--0--5-----------------------------------|

Break
D 0--0--0--0--0--0--0--0--0--0--------------------------|
A 0--0--0--0--0--0--0--4--5--5--------------------------|
E 2--2--2--2--2--2--5--0--0--0--------------------------|
D 0--2--4--2--0--0--0--0--0--4--------------------------|
A 0--0--0--0--0--2--0--4--5--5--------------------------|
D 0--0--0--0--0--0--5--0--0--0--------------------------|

NOTE: 050050 is partially muted by covering the entire 4th fret with the index finger

Ending
D 0--0--0--0--0--0--0--0--------------------------------|
A 0--0--0--0--0--0--0--0--------------------------------|
E 2--2--2--2--2--2--5--2--------------------------------|
D 0--2--4--2--0--0--0--0--------------------------------|
A 0--0--0--0--0--2--0--2--------------------------------|
D 0--0--0--0--0--0--5--0--------------------------------|