The Swellers - 2009 Chords & Tabs

 

2009 Chords & Tabs

The Swellers Chords & Tabs

Version: 1 Type: Tab

2009 Tab

   
The Swellers
2009

This is only the rhythm guitar.

HALF-STEP DOWN TUNING
DROP D

INTRO
--------------------------------------------------------|
--------------------------------------------------------|
11-11-9--7--7--7--7--7--7--7--6--6--6--4--4--4--4--4--4-|
0--0--0--0--0--0--0--0--0--0--0--0--0--0--0--0--0--0--0-|
9--9--7--5--5--5--5--5--5--5--4--4--4--2--2--2--2--2--2-|
0--0--0--0--0--0--0--0--0--0--0--0--0--0--0--0--0--0--0-|

----------------------------------------------|
----------------------------------------------|
11-11-9--7--7--7--7--7--7--7--6-X-6-X-6-X-6-X-|
0--0--0--0--0--0--0--0--0--0--0-X-0-X-0-X-0-X-|
9--9--7--5--5--5--5--5--5--5--4-X-4-X-4-X-4-X-|
0--0--0--0--0--0--0--0--0--0--0-X-0-X-0-X-0-X-|

--------------------------------------------------------------------------------------------|
--------------------------------------------------------------------------------------------|
6--6--7--7--7--7--7--7--7--7--9--9--9--9--11-11-11-11-11-11-11-11-9--9--9--9--9--9--9--9--7-|
0--0--0--0--0--0--0--0--0--0--0--0--0--0--0--0--0--0--0--0--0--0--0--0--0--0--0--0--0--0--0-|
4--4--5--5--5--5--5--5--5--5--7--7--7--7--9--9--9--9--9--9--9--9--7--7--7--7--7--7--7--7--5-|
0--0--0--0--0--0--0--0--0--0--0--0--0--0--0--0--0--0--0--0--0--0--0--0--0--0--0--0--0--0--0-|


------------------------------------|
------------------------------------|
7777777777777777-7777777777777777-7~|
7777777777777777-7777777777777777-7~|
5555555555555555-5555555555555555-5~|
0000000000000000-0000000000000000-0~|
 ***************  ***************
[ Tab from: http://www.guitartabs.cc/tabs/t/the_swellers/2009_tab.html ]
VERSE
------------------------------------|
------------------------------------|
------------------------------------|   X2 (Second time playing verse drop the
9999999999999999-5555555555555555-0~|       0~)
9999999999999999-5555555555555555-0~|
9999999999999999-5555555555555555-0~|

PRE-CHORUS
-----------------------------------|
-----------------------------------|
-----------------------------------|   X2
77777777-99999999-5555555555555555-|
77777777-99999999-5555555555555555-|
77777777-99999999-5555555555555555-|

CHORUS
----------------------------------|
----------------------------------|
7777777777777777------------------|
7777777777777777-9999999999999999-|
5555555555555555-9999999999999999-|
0000000000000000-9999999999999999-|

---------------------------------------|
---------------------------------------|
7777777777777777-----------------------|
7777777777777777-9-X-9-X-0-X-7-X-7-X-0-|
5555555555555555-9-X-9-X-0-X-7-X-7-X-0-|
0000000000000000-9-X-9-X-0-X-7-X-7-X-0-|

--------------------------------------|
--------------------------------------|
------------------------------------7-|
5555555555555555-77777777-9999-7777-7-|
5555555555555555-77777777-9999-7777-5-|
5555555555555555-77777777-9999-7777-0-|

INTERLUDE I
---------------------------------|
---------------------------------|
77-X-77-X-77-X-77-X-77-X-77-7777-|
77-X-77-X-77-X-77-X-77-X-77-7777-|
55-X-55-X-55-X-55-X-55-X-55-5555-|
00-X-00-X-00-X-00-X-00-X-00-0000-|

INTERLUDE II
---------------------------------------------------------|
---------------------------------------------------------|
---------------------------------------------------------|
555~7~0-2-4-4-5-5-5-9-9-9-9-9-9-9-9-7-7-7-7-7-7-7-7-0~9~-|
555~7~0-2-4-4-5-5-5-9-9-9-9-9-9-9-9-7-7-7-7-7-7-7-7-0~9~-|
555~7~0-2-4-4-5-5-5-9-9-9-9-9-9-9-9-7-7-7-7-7-7-7-7-0~9~-|

ORDER:
Intro
Verse
Pre-Chorus
Chorus
Verse
Pre-Chorus
Chorus
Interlude I
Intro
Interlude II
Chorus