The Supervillains - Crippy Weed Chords & Tabs

 

Crippy Weed Chords & Tabs

The Supervillains Chords & Tabs

Version: 1 Type: Bass Tab

Crippy Weed Bass Tab

Intro (2x)
G------------------------------|
D------------0--3--0-----------|
A---00-0-3-5----------00-0-3-5-|
E------------------------------|

Verse
G-----------------------------------------|
D--------------0-0-3-0------------0-0-3-0-|
A---0000-0-3-5-------0000-0-3-5-----------|
E-----------------------------------------|
[ Tab from: http://www.guitartabs.cc/tabs/t/the_supervillains/crippy_weed_btab.html ]
I want to get high today
G----------------------------------------|
D----------------------------------------|
A---0-3-575-3-5--0-3-575-3-5-------------|
E----------------------------------------|

2 pounds of crippy weed
G----------------------------------------|
D----------------------------4---4-4-5-6-|
A---0--0-4-0---0-0-4-7-5---5---5---------|
E----------------------------------------|

I'm not down with the crack rock
I just smoke pot and I dont want to be fucked with.

Legalize...
G--------------------------------|
D--------------------------------|
A--------------------------------|
E--4---3---2----2---3---4--------|