The Summer Set - Punch Drunk Love Chords & Tabs

 

Punch Drunk Love Chords & Tabs

The Summer Set Chords & Tabs

Version: 1 Type: Tab 0 ratings
1 star 2 stars 3 stars 4 stars 5 stars
comments

Punch Drunk Love Tab

TABBED BY KARLA DULAY!

STANDARD TUNING

INTRO 2x 
e|------0--0--0---0--0--0--0--0--0---0--0--0------------------|
B|------5--0--4h5-4--0--4--2--0--0h2-0--0--0------------------|
G|------4--4--4---4--4--4--2--2---------1--2/4----------------|
D|------------------------------------------------------------|
A|------------------------------------------------------------|
E|------------------------------------------------------------|
play that again 3x for the verse then 

PRECHOURUS
e|---0---0-----------|
B|---0---0-----------|
G|---6---4-----------|
D|---6---4-----------|
A|---4---2-----------|
E|-------------------|

CHORUS
e|--0------0------0------0---0-----------|
B|--0------0------0------0---0-----------|
G|--1------2------4------6---4-----------|
D|--2------2------4------6---4-----------|
A|--2------0------2------4---2-----------|
E|--0------------------------------------|

e|--0-----0------0----0----0----0----0-----0-----0-----0--------|
B|--0-----0------0----0----0----0----0-----0-----0-----0--------|
G|--1-----2------6----4----1----2----6-----4-----2-----4--------|
D|--2-----2------6----4----2----2----6-----4-----2-----4--------|
A|--2-----0------4----2----2----0----4-----2-----0-----2--------|
E|--0----------------------0------------------------------------|
[ Tab from: http://www.guitartabs.cc/tabs/t/the_summer_set/punch_drunk_love_tab.html ]
POST CHORUS
e|--0-0-0---0-0-0-0-0-0---0-0-0-0-0--0-0-0---0-0-0-0-0-0---0-0-0-0----|
B|--5-0-4h5-4-0-4-2-0-0h2-0-0-0-0-0--5-0-4h5-4-0-4-2-0-0h2-4-4-4-4----|
G|--4-4--4--4-4-4-2-2-------1-4-4-4--4-4-4---4-4-4-2-2-0h2-4-4-4-4----|
D|--------------------------------------------------------------------|
A|--------------------------------------------------------------------|
E|--------------------------------------------------------------------|

REPEAT VERSE
 PRECHORUS
e|--------------------------------------------|
B|--------------------------------------------|
G|-----------------6-------8------------------|
D|----4------7-----x-------x------------------|
A|----4------7-----4-------6------------------|
E|----2------5--------------------------------|

REPEAT CHORUS

BRIDGE 2x
e|---0-----0-----0----0-------------|
b|---0-----0-----0----0-------------|
G|---6-----4-----2----1-------------|
D|---6-----4-----2----2-------------|
A|---4-----2-----0----2-------------|
E|--------------------0-------------|

then play the intro and then
REPEAT CHORUS - on that one different part near the end of the song, its like this
e|--0--0---0--0----------0--0--0--0--0--0--0--0---------|
B|--0--0---0--0----------0--0--0--0--0--0--0--0---------|
G|--1--1---2--2----------6--6--4--4--2--2--4--4---------|
D|--2--2---2--2---6--6---6--6--4--4--2--2--4--4---------|
A|--2--2---0--0---6--6---4--4--2--2--0--0--2--2---------|
E|--0--0----------4--4----------------------------------|
then it continues as normal and you end on E

i hardly check my email so if u need to contact me, do it thru my youtube which is: msslamchamp
Comments