The Summer Set - Love In This Club Chords & Tabs

 

Love In This Club Chords & Tabs

The Summer Set Chords & Tabs

Version: 1 Type: Bass Tab 0 ratings
1 star 2 stars 3 stars 4 stars 5 stars
comments

Love In This Club Bass Tab

Intro
G------------------------------------------|
D------------------------------------------|
A-22222-4-66666-9-1111111111-9-77777-6-----| (2x)
E------------------------------------------|
those are 11's

"You searchin for somebody"
G------------------------------------------|
D------------------------------------------|
A-2-2-222----------------------------------| (2x)
E---------4-4-444-6-6-666-2-2-222----------|

"You know all you gotta do"
G-------------------------------------------------|
D-------------------------------------------------|
A-2-2-2-2-2-2-------------------------------------| (2x)
E-------------4-4-4-4-4-4-6-6-6-6-6-6-2-2-2-2-2-2-|

"Lookin in your eyes"
G------------------------------------------|
D------------------------------------------|
A-2----------------------------------------| (2x)
E------------4--------------6-----------2--| (Let Ring)

Chorus
"I wanna make love in this club"
G------------------------------------------|
D------------------------------------------|
A-22222222---------------------------------| (2x)
E----------44444444-66666666-22222222------|

"You got some friends rollin"
G------------------------------------------|
D------------------------------------------|
A-2-2-222----------------------------------| (2x)
E---------4-4-444-6-6-666-2-2-222----------|
[ Tab from: http://www.guitartabs.cc/tabs/t/the_summer_set/love_in_this_club_btab.html ]
"If you didn't know"
G-------------------------------------------------|
D-------------------------------------------------|
A-2-2-2-2-2-2-------------------------------------| (2x)
E-------------4-4-4-4-4-4-6-6-6-6-6-6-2-2-2-2-2-2-|

"Lookin in your eyes"
G------------------------------------------|
D------------------------------------------|
A-2----------------------------------------| (2x)
E------------4--------------6-----------2--| (Let Ring)

Chorus
"I wanna make love in this club"
G-------------------------------------------|
D-------------------------------------------|
A-22222222----------------------------------| (2x)
E----------44444444-66666666-22222222-------|

"I'm what you want"
G-------------------------------------------|
D-------------------------------------------|
A-2-----------------------------------------| (2x)
E-----------4----------------6-----------2--|

"Have you ever made love to a thug"
G-------------------------------------------|
D-------------------------------------------|
A--------222222-----------------------------| (2x)
E-666666--------444444-222222---------------|

Chorus
"I wanna make love in this club"
G-------------------------------------------|
D-------------------------------------------|
A-22222222----------------------------------| (2x)
E----------44444444-66666666-22222222-------|

Outro
G------------------------------------------|
D------------------------------------------|
A-22222-4-66666-9-1111111111-9-77777-6-----|
E------------------------------------------|

G------------------------------------------|
D------------------------------------------|
A-22222-4-66666-9-1111111111-9-(Let Ring)--|
E------------------------------------------|
those are 11's
Comments