The Summer Set - Cross Your Fingers Chords & Tabs

 

Cross Your Fingers Chords & Tabs

The Summer Set Chords & Tabs

Version: 1 Type: Bass Tab 0 ratings
1 star 2 stars 3 stars 4 stars 5 stars
comments

Cross Your Fingers Bass Tab

Intro-
G|------------------------------------------------------------------------|
D|------------------------------------------------------------------------|
A|---------88888888--6666666666666666-----------88888888-6666666666666666-|
E|66666666----------------------------66666666----------------------------|


Verse 1-
G|-------------------------------------|
D|-------------------------------------|
A|---------------------6-6-66-6-6-66666|   x2
E|6-6-66-6-6-66666---------------------|


Pre Chorus-
G|--------------------------------------------------------------------|
D|--------------------------------------------------------------------|
A|-----------------6666666666666666------------------6666666666666666x|
E|6666666666666666------------------6666666666666666------------------|


Chorus-
G|-----------------------------------|
D|-----------------------------------|
A|----------8-8888888-6666666666666--|
E|6-666666---------------------------|

G|------------------------------------------------|
D|--------------------8888--121212--151515151515--|
A|----------8-8888888-----------------------------|
E|6-666666----------------------------------------|


Post Chorus-
G|-----------------------------------------------|
D|-----------------------------------------------|
A|-------8-88-6-666666---------8-88-6~~~-----6x--|
E|6-66-------------------6-66--------------------|


Instrumental-
G|------------------------------------------------|
D|------------------------------------------------|
A|-----------8888888-66666666666666---------------|
E|666666------------------------------------------|


Verse 2-
G|----------------------------------------------------------------|
D|----------------------------------------------------------------|
A|-------6~~~~~----------6~~~~~-----------------------------------|
E|6~~~~~--------6~~~~~------------66666666666666666666666666666666|


[ Tab from: http://www.guitartabs.cc/tabs/t/the_summer_set/cross_your_fingers_btab.html ]
Pre Chorus-
G|--------------------------------------------------------------------|
D|--------------------------------------------------------------------|
A|-----------------6666666666666666------------------6666666666666666x|
E|6666666666666666------------------6666666666666666------------------|


Chorus-
G|-----------------------------------|
D|-----------------------------------|
A|----------8-8888888-6666666666666--|
E|6-666666---------------------------|

G|------------------------------------------------|
D|--------------------8888--121212--151515151515--|
A|----------8-888888------------------------------|
E|6-666666----------------------------------------|


Post Chorus-
G|-----------------------------------------------|
D|-----------------------------------------------|
A|-------8-88-6-666666---------8-88-6~~~-----6x--|
E|6-66------------------6-66---------------------|


Break-  "Stay up around the clock...."
G|-------------------------------------|
D|-------------------------------------|
A|----------666------------------------|
E|666---------------666-----666666666x-|


Chorus-
G|-----------------------------------|
D|-----------------------------------|
A|----------8-8888888-6666666666666--|
E|6-666666---------------------------|

G|------------------------------------------------|
D|--------------------8888--121212--151515151515--|
A|----------8-888888------------------------------|
E|6-666666----------------------------------------|


Post Chorus -
G|---------------------------------------------|
D|---------------------------------------------|
A|-------8-88-6-666666-------8-88-6~~~-----6x--|
E|6-66-----------------6-66--------------------|


Bridge-
G|----------------------------------------------|
D|8888888--15151515151515-----------------------|
A|-------------------------6-666666-666666------|
E|----------------------------------------------|


Ending-
G|--------------------------------------------|
D|--------------------------------------------|
A|--------8-88-6-666666---------8-88-6~~~~~~~~|
E|6-66--------------------6-66----------------|


Alternate Pre Chorus (It just sounds cooler)- 
G|--------------------------------------------------------------------------|
D|--------------------8---8---8---8----------------------8---8---8--8-----8x|
A|--8---8---8---8---6---6---6---6------8---8---8---8---6---6---6---6------6x|
E|6---6---6---6----------------------6---6---6---6--------------------------|
Comments