The Summer Set - Chelsea Chords & Tabs

 

Chelsea Chords & Tabs

The Summer Set Chords & Tabs

Version: 1 Type: Tab 0 ratings
1 star 2 stars 3 stars 4 stars 5 stars
comments

Chelsea Tab

   
-------------------------------------------------------------------------------
			     Chelsea - The Summer Set
-------------------------------------------------------------------------------
Tabbed by: NoSnowBear
Email: Vespenator23@yahoo.com

Tuning: Standard

INTRO

e|---------------------|---------------------|------------------------------------------|
B|---------------------|---------------------|------------------------------------------|
G|---------------------|---------------------|------------------------------------------|
D|------3333-3333-5555-|------3333-3333-5555-|------3333-7777-5555-3333-3333-5555-5555--|
A|-3333-1111-1111-3333-|-3333-1111-1111-3333-|-3333-1111-5555-3333-1111-1111-3333-3333--|
E|-1111----------------|-1111----------------|-1111-------------------------------------|

Verse 1
[ Tab from: http://www.guitartabs.cc/tabs/t/the_summer_set/chelsea_tab.html ]
e|---------------------|---------------------|------------------------------------------|
B|---------------------|---------------------|------------------------------------------|
G|----3~----------5-5--|----3~---------5-5---|------3~---7~-5~--3333-3333-5555-5555-----|
D|-3~-3~----------5-5--|-3~-3~---------5-5---|---3~-3~---7~-5~--3333-3333-5555-5555-----|
A|-3~-1~----------3-3--|-3~-1~---------3-3---|---3~-1~---5~-3~--1111-1111-3333-3333-----|
E|-1~------------------|-1~------------------|---1~-------------------------------------|
   
  CHORUS   X3               POST CHORUS
e|---------------------|-----------------------------------|
B|---------------------|-----------------------------------|
G|-3333------5555-7777-|----------------3333---5~----------|
D|-3333-3333-5555-7777-|----------------3333---5~----------|
A|-1111-3333-3333-5555-|----------------1111---3~----------|
E|------1111-----------|-----------------------------------|

Verse 2  

e|----------------|--------------|---------|--------------------------------------|
B|----------------|--------------|---------|--------------------------------------|
G|----3~-----5-5--|-----3~----5--|---Break-|--3333-3333-5555-5555-----------------|
D|-3~-3~-----5-5--|--3~-3~----5--|---------|--3333-3333-5555-5555-----------------|
A|-3~-1~-----3-3--|--3~-1~----3--|---------|--1111-1111-3333-3333-----------------|
E|-1~-------------|--1~----------|---------|--------------------------------------|

CHORUS X3
POST CHORUS X2   (Play 2nd power chord all the way through the first time)

BRIDGE X2
e|-----------------------|
B|-----------------------|
G|-7777-3333------5555---|
D|-7777-3333-3333-5555---|
A|-5555-1111-3333-3333---|
E|-----------1111--------|

Riff X7
e|------------------------|
B|------------------------|
G|------------------------|
D|-3333------5555-7777----|
A|-1111-3333-3333-5555----|
E|------1111--------------|

CHORUS X3
POST CHORUS X1
CHORUS X3
POST CHORUS X2

END CHORD
e|----|
B|----|
G|----|
D|-3--|
A|-3--|
E|-1--|



************************************

| /   slide up
| \   slide down
| h   hammer-on
| p   pull-off
| ~   vibrato
| +   harmonic
| x   Mute note
| b   Bend
| pb  Pre-bend
| br  Bend release
| pbr Pre-bend release
| brb Bend release bend

************************************
Comments