The Summer Set - Chelsea Chords & Tabs

 

Chelsea Chords & Tabs

The Summer Set Chords & Tabs

Version: 1 Type: Bass Tab 0 ratings
1 star 2 stars 3 stars 4 stars 5 stars
comments

Chelsea Bass Tab

Chelsea - The Summer Set

by EricM

Tuning: Standard (EADG)

Bass begins at 0:16

1st Verse

G----------------------------------------------------------|
D----------------------------------------------------------|			(X2)
A-----11--33-----------------------------------------------|
E--1-------------------------------------------------------|

G----------------------------------------------------------|
D----------------------------------------------------------|
A----11--55--33--11111111--33333333------------------------|
E--1-------------------------------------------------------|


Chorus

G----------------------------------------------------------|
D----------------------------------------------------------|			(X3)
A------------------33335555--------------------------------|
E--11111111------------------------------------------------|

G----------------------------------------------------------|
D----------------------------------------------------------|
A------------------33333333--------------------------------|
E--11111111------------------------------------------------|


2nd Verse

G----------------------------------------------------------|
D----------------------------------------------------------|			(X2)
A------11--33----------------------------------------------|
E--1-------------------------------------------------------|

G----------------------------------------------------------|
D----------------------------------------------------------|
A--11111111--33333333--------------------------------------|
E----------------------------------------------------------|

Chorus
[ Tab from: http://www.guitartabs.cc/tabs/t/the_summer_set/chelsea_btab.html ]
G----------------------------------------------------------|
D----------------------------------------------------------|			(X3)
A------------------33335555--------------------------------|
E--11111111------------------------------------------------|

G----------------------------------------------------------|
D----------------------------------------------------------|
A------------------33333333--------------------------------|
E--11111111------------------------------------------------|

Bridge

G----------------------------------------------------------|
D----------------------------------------------------------|
A--55555555--11111111--------------33333333----------------|
E---------------------------------11111111-----------------|

G----------------------------------------------------------|
D----------------------------------------------------------|
A--00000000--11111111--3333333333333333--------------------|
E----------------------------------------------------------|

Chorus (Repeat Twice!!!)

G----------------------------------------------------------|
D----------------------------------------------------------|			(X3)
A------------------33335555--------------------------------|
E--11111111------------------------------------------------|

G----------------------------------------------------------|
D----------------------------------------------------------|
A------------------33333333--------------------------------|
E--11111111------------------------------------------------|

Outro

G----------------------------------------------------------|
D----------------------------------------------------------|
A------------------33333333--------------------------------|
E--11111111------------------------------------------------|


And your done! :D
Comments