The Sugarhill Gang - Rappers Delight Chords & Tabs

 

Rappers Delight Chords & Tabs

The Sugarhill Gang Chords & Tabs

Version: 3 Type: Bass Tab 0 ratings
1 star 2 stars 3 stars 4 stars 5 stars
comments

Rappers Delight Bass Tab

Amazing song, standard tuning, have some fun with it, this is 100% correct, its
all about the timing, get it right and you know it will be perfect. There are
some other names for this bass line. Earth, Wind and fire - good times is the
oroginal. You can play with it by adding some quick notes to make it sound
alittle funky. Or you can slap it and make it sound reall cool. I hope u enjoy
this song very much.


Verse/Chorus:
[ Tab from: http://www.guitartabs.cc/tabs/t/the_sugarhill_gang/rappers_delight_btab_ver_3.html ]
G-------------------
D-------------------
A-------------------
E----------------/12         (SLIDE FROM 12)


G----------------------------------------
D-----------------------------0-2--------
A-----------------------0-2-4----0-0-0---
E------0-0-0-----0-02-3------------------



G------------------------------
D--------4--5-4----------------
A----0-0--0--0-0----0-H-2------
E-------------------------0-H-3

This is a really easy song, this is the hole thing, just keep doing this over n
over, it is easy, but it sounds really cool. anything u think is wrong let me
know  Mattcough319@yahoo.com
Comments