The Subways - Rock And Roll Queen Chords & Tabs

 

Rock And Roll Queen Chords & Tabs

The Subways Chords & Tabs

Version: 2 Type: Tab 0 ratings
1 star 2 stars 3 stars 4 stars 5 stars
comments

Rock And Roll Queen Tab

   
Artist: The Subways
Song: Rock And Roll Queen
Album: ? (Not Yet Released)
Tuning: Flats- Eb Ab Db Gb Bb Eb
Tabbed By James Morris
Date: 21.05.2005

This is the excellent new song from The Subways. I have tabbed the complete song in
flats as that is the tuning used for this song. I have tabbed all of the guitar parts
and the bass in the chorus.

Intro 
PM -----------------------------------------------------------------
Eb|-----------------------------------------------------------------|
Bb|-----------------------------------------------------------------|
Gb|-4-4-4-4-4-4-4-4-4-4-4-4-4-4-4-4-4-4-4-4-4-4-4-4-4-4-4-4-4-4-4-4-|
Db|-4-4-4-4-4-4-4-4-4-4-4-4-4-4-4-4-4-4-4-4-4-4-4-4-4-4-4-4-4-4-4-4-|
Ab|-2-2-2-2-2-2-2-2-2-2-2-2-2-2-2-2-2-2-2-2-2-2-2-2-2-2-2-2-2-2-2-2-|
Eb|-----------------------------------------------------------------|
    
     'You are,       the sun,         you are the only one,
PM -----------------------------------------------------------------
Eb|-----------------------------------------------------------------|
Bb|-----------------------------------------------------------------|
Gb|-4-4-4-4-4-4-4-4-4-4-4-4-4-4-4-4-4-4-4-4-4-4-4-4-4-4-4-4-4-4-4-4-|
Db|-4-4-4-4-4-4-4-4-4-4-4-4-4-4-4-4-4-4-4-4-4-4-4-4-4-4-4-4-4-4-4-4-|
Ab|-2-2-2-2-2-2-2-2-2-2-2-2-2-2-2-2-2-2-2-2-2-2-2-2-2-2-2-2-2-2-2-2-|
Eb|-----------------------------------------------------------------|

    My heart is blue,         my heart is blue for you'
PM --------------------------------------
Eb|-----------------------------------------------------------------|
Bb|-----------------------------------------------------------------|
Gb|-4-4-4-4-4-4-4-4-4-4-4-4-4-4-4-4-4-4-4-4-4-4-4-4-4-4-4-4-4-4-4-4-|
Db|-4-4-4-4-4-4-4-4-4-4-4-4-4-4-4-4-4-4-4-4-4-4-4-4-4-4-4-4-4-4-4-4-|
Ab|-2-2-2-2-2-2-2-2-2-2-2-2-2-2-2-2-2-2-2-2-2-2-2-2-2-2-2-2-2-2-2-2-|
Eb|-----------------------------------------------------------------|

Chorus

Guitar
 'Be My,     Be My,    Be My Little Rock And Roll Queen'
Eb|-----------------------------------------------------|
Bb|-1-1~------7-7~------4-4-4-4-4-4-4-4-4-4-4-4-4-4-4-4-|
Gb|-2-2~------7-7~------4-4-4-4-4-4-4-4-4-4-4-4-4-4-4-4-|
Db|-2-2~------7-7~------4-4-4-4-4-4-4-4-4-4-4-4-4-4-4-4-| x4
Ab|-0-0~------5-5~------2-2-2-0-2-2-2-0-2-2-0-2-2-2-2-0-|
Eb|-----------------------------------------------------|

Bass
 'Be My,     Be My,    Be My Little Rock And Roll Queen'
Gb|-----------------------------------------------------|
Db|-----------------------------------------------------|
Ab|-7-7~------5-5~------2-2-2-0-2-2-2-0-2-2-0-2-2-2-2-0-| x4
Eb|-----------------------------------------------------|


Eb|-----------------------------------------------------------------|
Bb|-----------------------------------------------------------------|
Gb|-4-4-4-4-4-4-4-4-4-4-4-4-4-4-4-4-4-4-4-4-4-4-4-4-4-4-4-4-4-4-4-4-|
Db|-4-4-4-4-4-4-4-4-4-4-4-4-4-4-4-4-4-4-4-4-4-4-4-4-4-4-4-4-4-4-4-4-|
Ab|-2-2-2-2-2-2-2-2-2-2-2-2-2-2-2-2-2-2-2-2-2-2-2-2-2-2-2-2-2-2-2-2-|
Eb|-----------------------------------------------------------------|

Verse
     'You are,       the sun,         you are the only one,
Eb|-----------------------------------------------------------------|
Bb|-----------------------------------------------------------------|
Gb|-4-4-4-4-4-4-4-4-4-4-4-4-4-4-4-4-4-4-4-4-4-4-4-4-4-4-4-4-4-4-4-4-|
Db|-4-4-4-4-4-4-4-4-4-4-4-4-4-4-4-4-4-4-4-4-4-4-4-4-4-4-4-4-4-4-4-4-|
Ab|-2-2-2-2-2-2-2-2-2-2-2-2-2-2-2-2-2-2-2-2-2-2-2-2-2-2-2-2-2-2-2-2-|
Eb|-----------------------------------------------------------------|

    You are,         so cool,        you are so rock and roll'
Eb|-----------------------------------------------------------------|
Bb|-----------------------------------------------------------------|
Gb|-4-4-4-4-4-4-4-4-4-4-4-4-4-4-4-4-4-4-4-4-4-4-4-4-4-4-4-4-4-4-4-4-|
Db|-4-4-4-4-4-4-4-4-4-4-4-4-4-4-4-4-4-4-4-4-4-4-4-4-4-4-4-4-4-4-4-4-|
Ab|-2-2-2-2-2-2-2-2-2-2-2-2-2-2-2-2-2-2-2-2-2-2-2-2-2-2-2-2-2-2-2-2-|
Eb|-----------------------------------------------------------------|
[ Tab from: http://www.guitartabs.cc/tabs/t/the_subways/rock_and_roll_queen_tab_ver_2.html ]
'Be My,     Be My,    Be My Little Rock And Roll Queen'
Eb|-----------------------------------------------------|
Bb|-1-1~------7-7~------4-4-4-4-4-4-4-4-4-4-4-4-4-4-4-4-|
Gb|-2-2~------7-7~------4-4-4-4-4-4-4-4-4-4-4-4-4-4-4-4-|
Db|-2-2~------7-7~------4-4-4-4-4-4-4-4-4-4-4-4-4-4-4-4-| x4
Ab|-0-0~------5-5~------2-2-2-0-2-2-2-0-2-2-0-2-2-2-2-0-|
Eb|-----------------------------------------------------|

Bass
 'Be My,     Be My,    Be My Little Rock And Roll Queen'
Gb|-----------------------------------------------------|
Db|-----------------------------------------------------|
Ab|-7-7~------5-5~------2-2-2-0-2-2-2-0-2-2-0-2-2-2-2-0-| x4
Eb|-----------------------------------------------------|

Bridge (Bass And Drums Stop)
Eb|-----------------------------------------------------------------|
Bb|-----------------------------------------------------------------|
Gb|-4-4-4-4-4-4-4-4-4-4-4-4-4-4-4-4-4-4-4-4-4-4-4-4-4-4-4-4-4-4-4-4-|
Db|-4-4-4-4-4-4-4-4-4-4-4-4-4-4-4-4-4-4-4-4-4-4-4-4-4-4-4-4-4-4-4-4-|
Ab|-2-2-2-2-2-2-2-2-2-2-2-2-2-2-2-2-2-2-2-2-2-2-2-2-2-2-2-2-2-2-2-2-|
Eb|-----------------------------------------------------------------|

Verse
     'You are,       the sun,         you are the only one,
Eb|-----------------------------------------------------------------|
Bb|-----------------------------------------------------------------|
Gb|-4-4-4-4-4-4-4-4-4-4-4-4-4-4-4-4-4-4-4-4-4-4-4-4-4-4-4-4-4-4-4-4-|
Db|-4-4-4-4-4-4-4-4-4-4-4-4-4-4-4-4-4-4-4-4-4-4-4-4-4-4-4-4-4-4-4-4-|
Ab|-2-2-2-2-2-2-2-2-2-2-2-2-2-2-2-2-2-2-2-2-2-2-2-2-2-2-2-2-2-2-2-2-|
Eb|-----------------------------------------------------------------|
                                                           
    You are,         so cool,        YOU ARE SO ROCK AND ROLL' 
Eb|-----------------------------------------------------------------|
Bb|-----------------------------------------------------------------|
Gb|-4-4-4-4-4-4-4-4-4-4-4-4-4-4-4-4-4-4-4-4-4-4-4-4-4-4-4-4-4-4-4-4-|
Db|-4-4-4-4-4-4-4-4-4-4-4-4-4-4-4-4-4-4-4-4-4-4-4-4-4-4-4-4-4-4-4-4-|
Ab|-2-2-2-2-2-2-2-2-2-2-2-2-2-2-2-2-2-2-2-2-2-2-2-2-2-2-2-2-2-2-2-2-|
Eb|-----------------------------------------------------------------|

  (Bass And Drums Join In - Feedback)
Eb|-----------------------------------------------------------------|
Bb|-----------------------------------------------------------------|
Gb|-4-4-4-4-4-4-4-4-4-4-4-4-4-4-4-4-4-4-4-4-4-4-4-4-4-4-4-4-4-4-4-4-|
Db|-4-4-4-4-4-4-4-4-4-4-4-4-4-4-4-4-4-4-4-4-4-4-4-4-4-4-4-4-4-4-4-4-|
Ab|-2-2-2-2-2-2-2-2-2-2-2-2-2-2-2-2-2-2-2-2-2-2-2-2-2-2-2-2-2-2-2-2-|
Eb|-----------------------------------------------------------------|
        (Very Faint Scream)'Ahhhhhhhhhhhhhhhhhhhhhhhhhhhhhhhhhhhhhh'
Eb|-----------------------------------------------------------------|
Bb|-----------------------------------------------------------------|
Gb|-4-4-4-4-4-4-4-4-4-4-4-4-4-4-4-4-4-4-4-4-4-4-4-4-4-4-4-4-4-4-4-4-|
Db|-4-4-4-4-4-4-4-4-4-4-4-4-4-4-4-4-4-4-4-4-4-4-4-4-4-4-4-4-4-4-4-4-|
Ab|-2-2-2-2-2-2-2-2-2-2-2-2-2-2-2-2-2-2-2-2-2-2-2-2-2-2-2-2-2-2-2-2-|
Eb|-----------------------------------------------------------------|

Chorus
'Be My,     Be My,    Be My Little Rock And Roll Queen'
Eb|-----------------------------------------------------|
Bb|-1-1~------7-7~------4-4-4-4-4-4-4-4-4-4-4-4-4-4-4-4-|
Gb|-2-2~------7-7~------4-4-4-4-4-4-4-4-4-4-4-4-4-4-4-4-|
Db|-2-2~------7-7~------4-4-4-4-4-4-4-4-4-4-4-4-4-4-4-4-| x4
Ab|-0-0~------5-5~------2-2-2-0-2-2-2-0-2-2-0-2-2-2-2-0-|
Eb|-----------------------------------------------------|

Bass
 'Be My,     Be My,    Be My Little Rock And Roll Queen'
Gb|-----------------------------------------------------|
Db|-----------------------------------------------------|
Ab|-7-7~------5-5~------2-2-2-0-2-2-2-0-2-2-0-2-2-2-2-0-| x4
Eb|-----------------------------------------------------|

End On 

Guitar
Eb|-------------|
Bb|-------------|
Gb|-4~~~~~~~~~~-|
Db|-4~~~~~~~~~~-|
Ab|-2~~~~~~~~~~-|
Eb|-------------|

Bass
Gb|-------------|
Db|-------------|
Ab|-2~~~~/7~~---|
Eb|-------------|

That is the whole song. Please rate, comment and correct if needed. 
Enjoy.
Comments