The Subways - Oh Yeah Chords & Tabs

 

Oh Yeah Chords & Tabs

The Subways Chords & Tabs

Version: 4 Type: Tab 0 ratings
1 star 2 stars 3 stars 4 stars 5 stars
comments

Oh Yeah Tab

   
Band: The Subways
Song: Oh Yeah
Album: ? (Not Yet Released)
Tuning: Flats - Eb Ab Db Gb Bb Eb
Tabbed By James Morris
Date: 18.03.05

This is a great song from The Subways. I saw the not long ago and they were brilliant.
I am pretty sure that this TAB is all correct, but if not please correct.

Drum intro then:

Eb|-0-0-0-0-0-3------|
Bb|-0-0-0-0-0-3--3-3-|
Gb|-1-1-1-1-0-0--2-2-|
Db|-2-2-2-2-0-0--0-0-| x4
Ab|-2-2-2-2-0-x--x-x-|
Eb|-0-0-0-0-0-3--2-2-|

Verse

Eb|-0~-----0------0----------------0~-----0------0-----------------|
Bb|-0~-----0------0----------------0~-----0------0-----------------|
Gb|-1~-----1------1----------------1~-----1------1-----------------|
Db|-2~-----2------2----------------2~-----2------2-----------------|
Ab|-2~------------2----------------2~------------2-----------------|
Eb|-0~---------------------3-2-3-2-0~----------------------3-2-3-2-|

'God bless ya soul girl, you are the whole world'  
Eb|-3-3-3-3-3-3-3-3-0-0-0-0-0-0-0-0-|
Bb|-3-3-3-3-3-3-3-3-2-2-2-2-1-1-1-1-|
Gb|-0-0-0-0-0-0-0-0-2-2-2-2-0-0-0-0-|
Db|-0-0-0-0-0-0-0-0-2-2-2-2-2-2-2-2-|
Ab|-x-x-x-x-x-x-x-x-0-0-0-0-3-3-3-3-|
Eb|-3-3-3-3-3-3-3-3-----------------|

Eb|-0-0-0-0-0-3------|
Bb|-0-0-0-0-0-3--3-3-|
Gb|-1-1-1-1-0-0--2-2-|
Db|-2-2-2-2-0-0--0-0-| x2
Ab|-2-2-2-2-0-x--x-x-|
Eb|-0-0-0-0-0-3--2-2-|

   'I'm on my way now, I'll get there somehow'
Eb|-3-3-3-3-3-3-3-3-0-0-0-0-0-0-0-0-|
Bb|-3-3-3-3-3-3-3-3-2-2-2-2-1-1-1-1-|
Gb|-0-0-0-0-0-0-0-0-2-2-2-2-0-0-0-0-|
Db|-0-0-0-0-0-0-0-0-2-2-2-2-2-2-2-2-|
Ab|-x-x-x-x-x-x-x-x-0-0-0-0-3-3-3-3-|
Eb|-3-3-3-3-3-3-3-3-----------------|

Eb|-0-0-0-0-0-3------|
Bb|-0-0-0-0-0-3--3-3-|
Gb|-1-1-1-1-0-0--2-2-|
Db|-2-2-2-2-0-0--0-0-| x2
Ab|-2-2-2-2-0-x--x-x-|
Eb|-0-0-0-0-0-3--2-2-|

Pre-chorus

Eb|---------------------------------|
Bb|-7-7-7-7-7-7-7-7-7-7-7-7-7-777-7-|
Gb|-9-9-9-9-9-9-9-9-9-9-9-9-9-999-9-|
Db|-9-9-9-9-9-9-9-9-9-9-9-9-9-999-9-| x3 
Ab|-7-7-7-7-7-7-7-7-7-7-7-7-7-777-7-|
Eb|-0-0-0-0-0-0-0-0-0-0-0-0-0-000-0-|

Then

Eb|---------------------------------|
Bb|-7-7-7-7-7-7-7-7~----------------|
Gb|-9-9-9-9-9-9-9-9~----------------|
Db|-9-9-9-9-9-9-9-9~----------------| x1
Ab|-7-7-7-7-7-7-7-7~----------------|
Eb|-0-0-0-0-0-0-0-0~----------------|

Chorus
                   'Oh Yeah, Oh Yeah'
Eb|-0-0-0-0-0-0-0-0-2-2-2-2-0-0-0-0-|
Bb|-0-0-0-0-0-0-0-0-3-3-3-3-1-1-1-1-|
Gb|-1-1-1-1-1-1-1-1-2-2-2-2-0-0-0-0-|
Db|-2-2-2-2-2-2-2-2-0-0-0-0-2-2-2-2-| x4
Ab|-2-2-2-2-2-2-2-2---------3-3-3-3-|
Eb|-0-0-0-0-0-0-0-0-----------------|

Eb|-0-0-0-0-0-3------|
Bb|-0-0-0-0-0-3--3-3-|
Gb|-1-1-1-1-0-0--2-2-|
Db|-2-2-2-2-0-0--0-0-| x4
Ab|-2-2-2-2-0-x--x-x-|
Eb|-0-0-0-0-0-3--2-2-|
[ Tab from: http://www.guitartabs.cc/tabs/t/the_subways/oh_yeah_tab_ver_4.html ]
Verse 2

Eb|-0~-----0------0----------------0~-----0------0-----------------|
Bb|-0~-----0------0----------------0~-----0------0-----------------|
Gb|-1~-----1------1----------------1~-----1------1-----------------|
Db|-2~-----2------2----------------2~-----2------2-----------------|
Ab|-2~------------2----------------2~------------2-----------------|
Eb|-0~---------------------3-2-3-2-0~----------------------3-2-3-2-|

'God bless ya soul girl, you are the whole world'  
Eb|-3-3-3-3-3-3-3-3-0-0-0-0-0-0-0-0-|
Bb|-3-3-3-3-3-3-3-3-2-2-2-2-1-1-1-1-|
Gb|-0-0-0-0-0-0-0-0-2-2-2-2-0-0-0-0-|
Db|-0-0-0-0-0-0-0-0-2-2-2-2-2-2-2-2-|
Ab|-x-x-x-x-x-x-x-x-0-0-0-0-3-3-3-3-|
Eb|-3-3-3-3-3-3-3-3-----------------|

Eb|-0-0-0-0-0-3------|
Bb|-0-0-0-0-0-3--3-3-|
Gb|-1-1-1-1-0-0--2-2-|
Db|-2-2-2-2-0-0--0-0-| x2
Ab|-2-2-2-2-0-x--x-x-|
Eb|-0-0-0-0-0-3--2-2-|

   'I'm on my way now, I'll get there somehow'
Eb|-3-3-3-3-3-3-3-3-0-0-0-0-0-0-0-0-|
Bb|-3-3-3-3-3-3-3-3-2-2-2-2-1-1-1-1-|
Gb|-0-0-0-0-0-0-0-0-2-2-2-2-0-0-0-0-|
Db|-0-0-0-0-0-0-0-0-2-2-2-2-2-2-2-2-|
Ab|-x-x-x-x-x-x-x-x-0-0-0-0-3-3-3-3-|
Eb|-3-3-3-3-3-3-3-3-----------------|

Eb|-0-0-0-0-0-3------|
Bb|-0-0-0-0-0-3--3-3-|
Gb|-1-1-1-1-0-0--2-2-|
Db|-2-2-2-2-0-0--0-0-| x2
Ab|-2-2-2-2-0-x--x-x-|
Eb|-0-0-0-0-0-3--2-2-|

Pre-chorus

Eb|---------------------------------|
Bb|-7-7-7-7-7-7-7-7-7-7-7-7-7-777-7-|
Gb|-9-9-9-9-9-9-9-9-9-9-9-9-9-999-9-|
Db|-9-9-9-9-9-9-9-9-9-9-9-9-9-999-9-| x3 
Ab|-7-7-7-7-7-7-7-7-7-7-7-7-7-777-7-|
Eb|-0-0-0-0-0-0-0-0-0-0-0-0-0-000-0-|

Then

Eb|---------------------------------|
Bb|-7-7-7-7-7-7-7-7~----------------|
Gb|-9-9-9-9-9-9-9-9~----------------|
Db|-9-9-9-9-9-9-9-9~----------------| x1
Ab|-7-7-7-7-7-7-7-7~----------------|
Eb|-0-0-0-0-0-0-0-0~----------------|

Chorus
                   'Oh Yeah, Oh Yeah'
Eb|-0-0-0-0-0-0-0-0-2-2-2-2-0-0-0-0-|
Bb|-0-0-0-0-0-0-0-0-3-3-3-3-1-1-1-1-|
Gb|-1-1-1-1-1-1-1-1-2-2-2-2-0-0-0-0-|
Db|-2-2-2-2-2-2-2-2-0-0-0-0-2-2-2-2-| x4
Ab|-2-2-2-2-2-2-2-2---------3-3-3-3-|
Eb|-0-0-0-0-0-0-0-0-----------------|

Eb|-0-0-0-0-0-3------|
Bb|-0-0-0-0-0-3--3-3-|
Gb|-1-1-1-1-0-0--2-2-|
Db|-2-2-2-2-0-0--0-0-| x4
Ab|-2-2-2-2-0-x--x-x-|
Eb|-0-0-0-0-0-3--2-2-|

Eb|-0~-----0------0----------------0~-----0------0-----------------|
Bb|-0~-----0------0----------------0~-----0------0-----------------|
Gb|-1~-----1------1----------------1~-----1------1-----------------|
Db|-2~-----2------2----------------2~-----2------2-----------------|
Ab|-2~------------2----------------2~------------2-----------------|
Eb|-0~---------------------3-2-3-2-0~----------------------3-2-3-2-|

End on

Eb|-0-|
Bb|-0-|
Gb|-1-|
Db|-2-|
Ab|-2-|
Eb|-0-|
Comments