The Subways - Oh Yeah Chords & Tabs

 

Oh Yeah Chords & Tabs

The Subways Chords & Tabs

Version: 1 Type: Tab 1 rating
1 star 2 stars 3 stars 4 stars 5 stars
comments

Oh Yeah Tab

billy lunn-guitars, lyrics, vocals
Charlotte Cooper-bass, vocals
JOsh Morgan-Drum Kit

this is oh yeah by the subways its my 
favorite song off young for eternity! i hope its good enough. its my first one.

1)E|----------------------------------------------------------|
  B|--6-6-6-6-----4-4--6-6-6-----4-4--------------------------|
  G|--8-8-8-8-4-4-6-6--6-8-8-4-4-6-6---this X 2 more----------|
  D|--8-8-8-8-6-6------8-8-8-6-6------------------------------|
  A|----------------------------------------------------------|
  E|----------------------------------------------------------|

 -well evrey time i come around-
2)E|----------------------------------------------------------|
  B|---6-6----------------------------------------------------|
  G|---8-8---for this you hit 1 and 2 and 3-each time for ----|
  D|---8-8-------------------a (number)-hit- and (and-hit)|---|
  A|----------------------------------------------------------|
  E|----------------------------------------------------------|

(continued)
3) E|---then slide up to -------------------------------------|
  B|------4-4-------------------------------------------------|
  G|------4-4--same rules  like and i and twoo and three------|
  D|------6-6--------------------or evrey half count----------|
  A|----------------------------------------------------------|
  E|----------------------------------------------------------|

[ Tab from: http://www.guitartabs.cc/tabs/t/the_subways/oh_yeah_tab.html ]
then when charlotte sings, god bless your soul girl...
4) E|---2--------------------4---------------------------------|
   B|---4-X 8times--slide to-6-X 4times--then --2--------------|
   G|---4--------------------6------------------4-X4times------|
   D|-------------------------------------------4--------------|
   A|----------------------------------------------------------|
   E|----------------------------------------------------------|


this again then back to
5) E|----------------------------------------------------------|
   B|--6-6-6-6-----4-4--6-6-6-----4-4--------------------------|
   G|--8-8-8-8-4-4-6-6--6-8-8-4-4-6-6---this X 2 more----------|
   D|--8-8-8-8-6-6------8-8-8-6-6------------------------------|
   A|----------------------------------------------------------|
   E|----------------------------------------------------------|

            then repeat #4 and back to #5 and do it 
                like the song i think its twice.

        back to #2 but listen to the song, small diffrence

its your eyes that make me smile...OH YEAH, OH YEAH
6)E|----------------------------------------------------------|
  B|---6---4---2--hold each for three seconds in position.----|
  G|---8---6---4--but last one hold tell he says the next line|
  D|---8---6---4-------IMPOTANT!------------------------------|
  A|----------------------------------------------------------|
  E|----------------------------------------------------------|

back to #1. thats about all the positons easy to figure out once you get the hang of it. im 
sorry if that was hard to understand. if it was just give me a really low rating. no im kidding!
SIlly!

THE SUBWAYS ARE THE DREATEST BESIDES GREEN DAY! HOLLA!
Comments