The Subways - Oh Yeah Chords & Tabs

 

Oh Yeah Chords & Tabs

The Subways Chords & Tabs

Version: 2 Type: Bass Tab

Oh Yeah Bass Tab

   
Oh Yeah

		X4
G------------------|
D------------------|
A-6-6-6-6-9-90-----|
E--------------9-9-|

		X3		then on last time play X1
G-----------------		G-----------------|
D-----------------		D-----------------|
A-6-6-6-6-6-6-4-5-		A-6-6-6-6-6-4-1---|
E-----------------		E---------------4-|

				X1
G---------------------------------|
D---------------------------------|
A---------------------------------|
E-2-2-2-2-2-2-2-2-4-4-4-4-7-7-7-7-|

		X2
G------------------|
D------------------|
A-6-6-6-6-9-90-----|
E--------------9-9-|

				X1
G---------------------------------|
D---------------------------------|
A---------------------------------|
E-2-2-2-2-2-2-2-2-4-4-4-4-7-7-7-7-|

		X2
G------------------|
D------------------|
A-6-6-6-6-9-90-----|
E--------------9-9-|

	“have you ever seen the light…”				X2
G-----------------------------------------------------------------|
D-----------------------------------------------------------------|
A-6-6-6-6-6-6-6-6-6-6-6-6-6-6-4-5-6-6-6-6-6-6-6-6-6-6-6-6-6-4-1---|
E---------------------------------------------------------------4-|


								X1
G-----------------------------------------------------------------|
D-----------------------------------------------------------------|
A-6-6-6-6-4-4-4-4-2-2-2-2-2-2-2-2-6-6-6-6-4-4-4-4-2-2-2-2-2-2-2-2-|
E-----------------------------------------------------------------|
								X1
G-----------------------------------------------------------------|
D-----8-6-----6-4---------------------8-6-----6-4-----------------|
A-6-6-----4-4-----2-2-2-2-2-2-2-2-6-6-----4-4-----2-2-2-2-2-2-2-2-|
E-----------------------------------------------------------------|

		X4
G------------------|
D------------------|
A-6-6-6-6-9-90-----|
E--------------9-9-|
[ Tab from: http://www.guitartabs.cc/tabs/t/the_subways/oh_yeah_btab_ver_2.html ]
		X3			then on last time play X1
G-----------------                 G------------------|
D-----------------            D-----------------------|
A-6-6-6-6-6-6-4-5-            A-6-6-6-6-6-4-1---------|
E-----------------            E---------------4-------|

				X1
G---------------------------------|
D---------------------------------|
A---------------------------------|
E-2-2-2-2-2-2-2-2-4-4-4-4-7-7-7-7-|

		X2
G------------------|
D------------------|
A-6-6-6-6-9-90-----|
E--------------9-9-|

				X1
G---------------------------------|
D---------------------------------|
A---------------------------------|
E-2-2-2-2-2-2-2-2-4-4-4-4-7-7-7-7-|

		X2
G------------------|
D------------------|
A-6-6-6-6-9-90-----|
E--------------9-9-|

Silence whilst Guitar play, bass comes in again at 2:07ish

         X1
G----------|
D----------|
A-6-4------|
E------6-4-|
		                                                X1
G-----------------------------------------------------------------|
D-----------------------------------------------------------------|
A-6-6-6-6-6-6-6-6-6-6-6-6-6-6-4-5-6-6-6-6-6-6-6-6-6-6-6-6-6-4-1---|
E---------------------------------------------------------------4-|

								X1
G-----------------------------------------------------------------|
D-----------------------------------------------------------------|
A-6-6-6-6-4-4-4-4-2-2-2-2-2-2-2-2-6-6-6-6-4-4-4-4-2-2-2-2-2-2-2-2-|
E-----------------------------------------------------------------|

                                                                X1
G-----------------------------------------------------------------|
D-----8-6-----6-4---------------------8-6-----6-4-----------------|
A-6-6-----4-4-----2-2-2-2-2-2-2-2-6-6-----4-4-----2-2-2-2-2-2-2-2-|
E-----------------------------------------------------------------|

		X4
G------------------|
D------------------|
A-6-6-6-6-9-90-----|
E--------------9-9-|

                                          X1
G-------------------------------------------|
D-------------------------------------------|
A-6~----------9-8-9-8-6~----------9-8-9-8-6-|
E-------------------------------------------|