The Subways - Oh Yeah Chords & Tabs

 

Oh Yeah Chords & Tabs

The Subways Chords & Tabs

Version: 1 Type: Bass Tab 0 ratings
1 star 2 stars 3 stars 4 stars 5 stars
comments

Oh Yeah Bass Tab

   
The Subways - Oh Yeah
Tabbed By: Danny Lee
email: fenderbender88@hotmail.co.uk


Tuning:EADG
[ Tab from: http://www.guitartabs.cc/tabs/t/the_subways/oh_yeah_btab.html ]
Intro: (x4)
G|----------------|
D|----------------|
A|-6-6-6---9-9----|
E|-------------9-9|
Verse:                    |    Verse Part 2   | |    Intro  (x2) |
G|--------------------------------------------|G|----------------|
D|--------------------------------------------|D|----------------|
A|-6~--9-8-9-8-6~--9-8-9-8---------------22-44|A|-6-6-6---9-9----|
E|-------------------------22222222-4444------|E|-------------9-9|
                          ^
Then Play again from Verse Part 2
Pre Chorus: start from just before "I will live and i will die"
G|--------------------------------------------|
D|--------------------------------------------|
A|----9-8-9-8-6-6-6-6-6-6-6-6-6-6-6-6-6-6-6-6-|
E|--------------------------------------------|

Chorus:

G|--------------------------------|
D|--------------------------------|
A|-6-6-6-6-4-4-4-4-2-2-2-2-4-4-4-4|
E|--------------------------------|

Intro (x4)
Verse
Pre chorus
Chorus
Intro (x4)
Outro:
G|-------------------------|
D|-------------------------|
A|6~--9-8-9-8-6~--9-8-9-8-6|
E|-------------------------|
Comments