The Subways - No Goodbyes Chords & Tabs

 

No Goodbyes Chords & Tabs

The Subways Chords & Tabs

Version: 1 Type: Bass Tab

No Goodbyes Bass Tab

No Goodbyes

Intro & instrumental
G------------------------------------|
D------------------------------------|
A------------------------------------|
E--555-333-555-333-555-333-----------|

Verse
G------------------------------------------------|
D------------------------------------------------|
A-------------------------------5----------------|
E--555-333-555-333-555-333-555-----7-3-----------|
[ Tab from: http://www.guitartabs.cc/tabs/t/the_subways/no_goodbyes_btab.html ]
Bridge
G----------------------------------------|
D----------------9-5-4-------------------|
A--3333333-5------------532--------------|
E------------------------------3---------|

chorus
G------------------------------------------------------------------------------------|
D-----9----9--------9------9-----9------9--------------------------------------------|
A--7------------7-------------7-------------3333-----(5555555) 4th time only "oh no--|
E------10--------------10----------10------------------------------------------------|

Intro
verse x2
bridge x2
intro
verse x2
bridge x2
chorus x4
Instrumental
bridge x2
chorus x4
intro


by tom Robinson