The Subways - I Want To Hear What You Got To Say Chords & Tabs

 

I Want To Hear What You Got To Say Chords & Tabs

The Subways Chords & Tabs

Version: 1 Type: Bass Tab 0 ratings
1 star 2 stars 3 stars 4 stars 5 stars
comments

I Want To Hear What You Got To Say Bass Tab

Verse

G|-----------------|-----------------|
D|-----------------|-----------------| X2
A|4-4-4444-4-4-4444|-4-4-4444--------|
E|-----------------|----------0-0-7-7|


Verse Pt. 2

G|-----------------|-----------------|-----------------|-----------------|
D|-----------------|-----------------|-----------------|-----------------| 
A|-----------------|2-2-2-2-2-2-2222-|4-4-4444-4-4-4444|-4-4-4444--------|
E|5-5-5-5-5-5-5555-|-----------------|-----------------|----------0-0-7-7|
[ Tab from: http://www.guitartabs.cc/tabs/t/the_subways/i_want_to_hear_what_you_got_to_say_btab.html ]
G|-----------------|-----------------|
D|-----------------|-----------------|
A|-----------------|2-2-2-2-2-2-2222-|
E|5-5-5-5-5-5-5555-|-----------------|



Chorus

G|-----------------|-----------------|
D|-----------------|-----------------|X4
A|------------6666-|7-7-7-7-7-7-9999-|
E|4-4-4-4-4-4------|-----------------|

G|-----------------|-----------------|
D|-----------------|-----------------| 
A|-----------------|2-2-2-2-2-2-2222-|
E|5-5-5-5-5-5-5555-|-----------------|


Outro

G|-----------------|-----------------|
D|-----------------|-----------------|
A|4-4-4444-4-4-4444|-4-4-4444--------|
E|-----------------|----------0-0-7-7|
Comments