The Subways - Holiday Chords & Tabs

 

Holiday Chords & Tabs

The Subways Chords & Tabs

Version: 2 Type: Tab 0 ratings
1 star 2 stars 3 stars 4 stars 5 stars
comments

Holiday Tab

Although this is a simple song, it still completely rocks. I apologise for any mistakes
but I think it's pretty accurate, not too sure about the lyrics but they're pretty close.
Enjoy!

Intro/Opening Riff

e|----------------------------------------------------------------|
B|----------------------------------------------------------------|
G|--------------------------99999---------------------------------|
D|--66654-4-66654-4-66654-4-99999---x2----------------------------|
A|--66654-4-66654-4-66654-4-77777---------------------------------|
E|--44432-2-44432-2-44432-2---------------------------------------|

Verse

e|----------------------------------------------------------------|
B|----------------------------------------------------------------|
G|--------------------------99999999------------------------------|
D|--66654-4-66654-4-66654-4-99999999---x2-------------------------|
A|--66654-4-66654-4-66654-4-77777777------------------------------|
E|--44432-2-44432-2-44432-2---------------------------------------|

Chorus

e|----------------------------------------------------------------|
B|-------------------------------------------THEN-----------------|
G|--6666666666666666-3333333333333333-------2222222222222222------|
D|--6666666666666666-3333333333333333---x4--2222222222222222------|
A|--4444444444444444-1111111111111111-------0000000000000000------|
E|----------------------------------------------------------------|

Intro Riff
[ Tab from: http://www.guitartabs.cc/tabs/t/the_subways/holiday_tab_ver_2.html ]
e|----------------------------------------------------------------|
B|----------------------------------------------------------------|
G|--------------------------99999---------------------------------|
D|--66654-4-66654-4-66654-4-99999---x2----------------------------|
A|--66654-4-66654-4-66654-4-77777---------------------------------|
E|--44432-2-44432-2-44432-2---------------------------------------|

Verse

e|----------------------------------------------------------------|
B|----------------------------------------------------------------|
G|--------------------------99999999------------------------------|
D|--66654-4-66654-4-66654-4-99999999---x2-------------------------|
A|--66654-4-66654-4-66654-4-77777777------------------------------|
E|--44432-2-44432-2-44432-2---------------------------------------|

Chorus

e|----------------------------------------------------------------|
B|-------------------------------------------THEN-----------------|
G|--6666666666666666-3333333333333333-------2222222222222222------|
D|--6666666666666666-3333333333333333---x4--2222222222222222------|
A|--4444444444444444-1111111111111111-------0000000000000000------|
E|----------------------------------------------------------------|

Intro Riff

e|----------------------------------------------------------------|
B|---------------------------------------THEN---------------------|
G|--------------------------99999---------------------------------|
D|--66654-4-66654-4-66654-4-99999---x2---6------------------------|
A|--66654-4-66654-4-66654-4-77777--------6------------------------|
E|--44432-2-44432-2-44432-2--------------4------------------------|
Comments