The Stunnings - Brewing Up A Storm Chords & Tabs

 

Brewing Up A Storm Chords & Tabs

The Stunnings Chords & Tabs

Version: 1 Type: Tab 1 rating
1 star 2 stars 3 stars 4 stars 5 stars
comments

Brewing Up A Storm Tab

   
Brewing up a Storm - The Stunning(S Wall).

Tabbed by Sig Doherty, dedicated to Caroline and Isabel x.


Intro: 

------------------------------------------------------------------------
------------------------------------------------------------------------
-------2-----------0-------------0----------------0---------------------
----------2-----------0-------------0----------------0------------------
---0---------3-----------2----------------------------------------------
---------------------------------------3--------------------------------



------------------------------------------------------------------------
------------------------------------------------------------------------
-------2-----------0-------------0----------------0---------------------
----------2-----------0-------------0----------------0------------------
---0---------3-----------2----------------------------------------------
---------------------------------------3--------------------------------



verse 1   

Am           C            Em            G          Am  C  Em  G.. 
------------------------------------------------------------------------
------------------------------------------------------------------------
-------2-----------0-------------0----------------0---------------------
----------2-----------0-------------0----------------0------------------
---0---------3-----------2----------------------------------------------
---------------------------------------3--------------------------------

chorus
Am       C    D     Am      C    D
brewing up a storm, brewing up a storm
[ Tab from: http://www.guitartabs.cc/tabs/t/the_stunnings/brewing_up_a_storm_tab.html ]
------------------------------------------------------------------------
------------------------------------------------------------------------
-------2-----------0-------------0----------------0---------------------
----------2-----------0-------------0----------------0------------------
---0---------3-----------2----------------------------------------------
---------------------------------------3--------------------------------


verse 2

Am           C            Em            G          Am  C  Em  G..
------------------------------------------------------------------------
------------------------------------------------------------------------
-------2-----------0-------------0----------------0---------------------
----------2-----------0-------------0----------------0------------------
---0---------3-----------2----------------------------------------------
---------------------------------------3--------------------------------


chorus


verse 3

(vocal only)                           (cowbell)2-3-4 Am C Em G 
fire in his eyes in his head fire in his..............touch (ect).
Am           C            Em            G          Am  C  Em  G.. 


------------------------------------------------------------------------
------------------------------------------------------------------------
-------2-----------0-------------0----------------0---------------------
----------2-----------0-------------0----------------0------------------
---0---------3-----------2----------------------------------------------
---------------------------------------3--------------------------------


chorus

outro
Am           C            Em            G          Am  C  Em  G.. 
da da da da da da da da da da da da


brewing up a stoooooooorrrrrrrmmmmm - yeah!

Any corrections, comments, mail me: sigdoherty@hotmail.com.

Join the Indie Delights mailing list: indiedelights@yahoo.co.uk....the best rockin night
in a town near you(strictly NO dress code!!!)
peace out, chazam
thats good, thats good..........................................;-)
Comments