The Stooges - Not Right Chords & Tabs

 

Not Right Chords & Tabs

The Stooges Chords & Tabs

Version: 1 Type: Tab 0 ratings
1 star 2 stars 3 stars 4 stars 5 stars
comments

Not Right Tab

   
Artist: Iggy & The Stooges
Album:  The Stooges
Songs:  Not Right

Verse:
    A           C          A           G
|------------------------------------------------------------------------------------|
|------------------------------------------------------------------------------------|
|------------------------------------------------------------------------------------|
|---7-7-7---7-7-10---------7-7-7--7-7--5---------------------------------------------|
|---7-7-7---7-7-10---------7-7-7--7-7--5---------------------------------------------|
|---5-5-5---5-5--8---------5-5-5--5-5--3---------------------------------------------|
                   "She's"              "not right"

[ Tab from: http://www.guitartabs.cc/tabs/t/the_stooges/not_right_tab.html ]
Chorus:

|------------------------------------------------------------------------------------|
|------------------------------------------------------------------------------------|
|------------------------------------------------------------------------------------|
|--7-7-7--7-7---101010-1010----9-9-9--9-9----8-8-8--8-8------------------------------|
|--7-7-7--7-7---101010-1010----9-9-9--9-9----8-8-8--8-8------------------------------|
|--5-5-5--5-5----8-8-8--8-8----7-7-7--7-7----6-6-6--6-6------------------------------| x4
               "I want something...."

After the forth time, go straight into the next verse with "I" ... "'m not right"
Sorry no solo but it's keyed in A and I think it's the blues scale, not hard to improvise.
Comments