The Stooges - Dirt Chords & Tabs

 

Dirt Chords & Tabs

The Stooges Chords & Tabs

Version: 1 Type: Tab

Dirt Tab

   
Song is in Am (i think)

Bass line Intro/verse

|--------------5--|
|--7---7-----5----|
|--------5-7------|
|-----------------|

guitar over intro

(slowly releasing palm muting)
|------------------------------------------------------|
|-------------------------------------------/10/0------|
|------------------------------------------------------|
|--7-7-7-7-7-7-7-7-7/0---------------------------------|
|------------------------------------------------------|
|------------------------------------------------------|


ooooh i've been dirt                  and i don't care

|-------------------------------------------------------------------------|
|-------------------------------------------------------------------------|
|----------------------5~~~7-5~~----------------------7b8--------5h7~~----|
|--------------------7----------7~~~----------------------------------5h7-|
|-------------------------------------------------------------------------|
|-------------------------------------------------------------------------|


oooo i've been dirt                  and i don't care

|------------------------------------------------------------------------|
|-------------------7b8--------------------------------------------------|
|-------------------9b10------------------------------7b8--------5h7~~---|
|----------------------------7/0-------------------------------------5h7-|
|------------------------------------------------------------------------|
|------------------------------------------------------------------------|

[ Tab from: http://www.guitartabs.cc/tabs/t/the_stooges/dirt_tab.html ]
Bass for Chorus with Guitar Chords (barred chords)

    Am             G                   F
|--------------5-------------------------------1----------1-------------|
|---7--7-----5--------5--5-----3-6--3--3-----1----3-----1---------------|
|--------5-7---------------3-5-----------1-3--------1-3-----------------|
|-----------------------------------------------------------------------|
(with variations)


second verse more or less the same as the first, different fills, thats all.  really its
to mess around and improvise.  the only thing to note is that awesome bend before iggy
singing.  thats an A on the B string, bent up to a B, then released.  that bend gets me 
time.

Solo

the bass messes around that the notes of its verse riff.  guitar solos around those
in the fills in the verse.  the sort of scale is something like:
|---------------------8-10-12-|
|----------------8-10---------|
|----------5-7-9--------------|
|------5-7--------------------|
|--5-7------------------------|
|-----------------------------|
with loads of bends

rest of the song is much the same, with simple variatons on previous riffs, and so on.
chorus chords have a wah on them after the solo.

dead easy song, but sounds really awesome.  Ron Asheton won't play this song with the
he's played with since the stooges, cos he looves the version thats on the record so much.
a very easy song to learn and has loads of room for progression in it, making it ace 
 the chord changes in the chorus are slow ones, and you've got the bass backing
up, so its good for people learning barre chords as well i guess.