The Spookshow - Bring Out Your Dead Chords & Tabs

 

Bring Out Your Dead Chords & Tabs

The Spookshow Chords & Tabs

Version: 1 Type: Tab

Bring Out Your Dead Tab

------------------------------------------------------------
Bring Out Your Dead - The Spookshow - Psychosexual Chapter I
------------------------------------------------------------

Intro/Verse(w/pm)/Chorus
e|--------------|
b|--------------|
g|--9--6--------|
d|--9--6--7--9--|
a|--7--4--7--9--|
E|--------5--7--|

[ Tab from: http://www.guitartabs.cc/tabs/t/the_spookshow/bring_out_your_dead_tab.html ]