The Speaks - High Chords & Tabs

 

High Chords & Tabs

The Speaks Chords & Tabs

Version: 1 Type: Bass Tab 0 ratings
1 star 2 stars 3 stars 4 stars 5 stars
comments

High Bass Tab

-------------------------------------------------------------------------------
                             THE SPEAK--HIGH
-------------------------------------------------------------------------------

TRANSCRIBED BY:BRANDON PHILIP LLAPITAN
CP NO.:09186243757/09157906477
TUNING:STANDARD

NOTE:THIS IS MY FAVORITE SONG!! SO I DECIDED TO TABBED IT!!!!
     THIS IS THE BASS TAB OF THIS SONG!! IF YOU HAVE ANY QUESTION, JUST
     CALL ME OR E-MAIL ME AT brandon_rakista@yahoo.com

INTRO:
G--7-7-|-----|-----|-----|-----|
D------|-7-7-|-9-9-|-5-5-|-----|(2x)
A------|-----|-----|-----|-5p4-|
E------|-----|-----|-----|-----|

VERSE:
G--7-7-|-----|-----|-----|-----|
D------|-7-7-|-9-9-|-5-5-|-----|(2x)
A------|-----|-----|-----|-5p4-|
E------|-----|-----|-----|-----|
[ Tab from: http://www.guitartabs.cc/tabs/t/the_speaks/high_btab.html ]
REFRAIN:
G-------|------|------|------|
D-------|------|------|------|(2x)
A-55--5-|------|-22-2-|------|
E-------|-55-5-|------|-33-3-|

CHORUS:
G--------------|--------------------|-------------|-----------------|
D--------------|--------------------|-------------|-----------------|(2x)
A-5555-55-5-55-|--------------------|-------------|-----------------|
E--------------|-00-0-5-555-55-5-55-|-557-77-7-77-|00-3-333-33-3-33-|

VERSE 2:

G------|------|-------|---------|
D------|------|-------|---------|(2x)
A-55-5-|------|-------|---------|
E------|-55-5-|-/7-77-|-33-3-33-|

REFRAIN 2:
G--------|---------|---------|---------|
D--------|---------|---------|---------|(2x)
A-55-5-55|---------|-22-2-22-|---------|
E--------|-55-5-55-|---------|-33-3-33-|

REPEAT CHORUS..
THEN SOLO..(solo is like the chorus)
REPEAT VERSE 2..
REPEAT REFRAIN 2..
REPEAT CHORUS 4x

THAT'S ALL!!!

                              <<<<>>>>
Comments