The Spazzys - Paco Doesnt Love Me Chords & Tabs

 

Paco Doesnt Love Me Chords & Tabs

The Spazzys Chords & Tabs

Version: 1 Type: Tab 0 ratings
1 star 2 stars 3 stars 4 stars 5 stars
comments

Paco Doesnt Love Me Tab

   
Artist: The Spazzys
Song: Paco Doesn't Love Me
Released On: Aloha! Go Bananas and the Paco Doesn't Love Me (CD Single)

Tabbed for Renee, the spazziest mofo around!
Any Qualms, gimme a yell at disco_steve_69@hotmail.com with your feedback

This is the greatest noob guitarist song you will ever find, good fun too, very ramones-ey

BASS INTRO:
E-|-----------------|
B-|-----------------|
G-|-----------------|
D-|-----------------|(x 4)
A-|-----------------|
E-|--3/5-5-5-5-5-5--|

Then:

E-|---------------------------------------------------------------|
B-|---------------------------------------------------------------|
G-|----------------7--7-7--9--9-9----------------7--7-7--9--9-9---|
D-|----7-7-7-7-7---7--7-7--9--9-9------7-7-7-7-7-7--7-7--9--9-9---|
A-|----7-7-7-7-7---5--5-5--7--7-7------7-7-7-7-7-5--5-5--7--7-7---|
E-|----5-5-5-5-5-----------------------5-5-5-5-5------------------|

E-|-------------------------------------------------------------|
B-|-------------------------------------------------------------|
G-|--------------7--7-7--9--9-9---------------------------------|
D-|--4--4-4-4-4--7--7-7--9--9-9---------------------------------|
A-|--4--4-4-4-4--5--5-5--7--7-7---------------------------------|
E-|--2--2-2-2-2-------------------3/5-5-5-5-5-5--3/5-5-5-5-5-5--|

1ST VERSE CHORDS:
    A5  D5  E5  D5 (x 2)
E-|-----------------|---------------------------------|
B-|-----------------|---------------------------------|
G-|-----7---9---7---|---------------------------------|
D-|-7---7---9---7---|---------------------------------|
A-|-7---5---7---5---|---------------------------------|
E-|-5---------------|---3/5-5-5-5-5-5--3/5-5-5-5-5-5--|

1ST CHORUS:
E-|------------------------------------------------------|
B-|------------------------------------------------------|
G-|-7--7-7-7-7--9--9-9-9-9--------------11--11-11-11-11--|
D-|-7--7-7-7-7--9--9-9-9-9--7--7-7-7-7--11--11-11-11-11--|
A-|-5--5-5-5-5--7--7-7-7-7--7--7-7-7-7--9---9--9--9--9---|
E-|-------------------------5--5-5-5-5-------------------|

E-|-------------------------------------------------------|
B-|-------------------------------------------------------|
G-|-7--7-7-7-7--9--9-9-9-9--------------------------------|
D-|-7--7-7-7-7--9--9-9-9-9--------------------------------|
A-|-5--5-5-5-5--7--7-7-7-7--------------------------------|
E-|-------------------------3/5-5-5-5-5-5--3/5-5-5-5-5-5--|

E-|----------------------------------------|
B-|----------------------------------------|
G-|-7--7-7-7-7--9--9-9-9-9-----------------|
D-|-7--7-7-7-7--9--9-9-9-9--7---6---4---2--|
A-|-5--5-5-5-5--7--7-7-7-7--7---6---4---2--|
E-|-------------------------5---4---2---0--|

E-|--------------------------------------------------|
B-|--------------------------------------------------|
G-|-7--7-7-7-7--9------------------------------------|
D-|-7--7-7-7-7--9------------------------------------|
A-|-5--5-5-5-5--7------------------------------------|
E-|--------------------3/5-5-5-5-5-5--3/5-5-5-5-5-5--|

E-|---------------------------------------------------------------|
B-|---------------------------------------------------------------|
G-|----------------7--7-7--9--9-9----------------7--7-7--9--9-9---|
D-|----7-7-7-7-7-7-7--7-7--9--9-9----7-7-7-7-7-7-7--7-7--9--9-9---|
A-|----7-7-7-7-7-7-5--5-5--7--7-7----7-7-7-7-7-7-5--5-5--7--7-7---|
E-|----5-5-5-5-5-5-------------------5-5-5-5-5-5------------------|

E-|-------------------------------------------------------------|
B-|-------------------------------------------------------------|
G-|--------------7--7-7--9--9-9---------------------------------|
D-|--4--4-4-4-4--7--7-7--9--9-9---------------------------------|
A-|--4--4-4-4-4--5--5-5--7--7-7---------------------------------|
E-|--2--2-2-2-2-------------------3/5-5-5-5-5-5--3/5-5-5-5-5-5--|

2ND VERSE CHORDS:
    A5  D5  E5  D5 (x 2)
E-|-----------------|---------------------------------|
B-|-----------------|---------------------------------|
G-|-----7---9---7---|---------------------------------|
D-|-7---7---9---7---|---------------------------------|
A-|-7---5---7---5---|---------------------------------|
E-|-5---------------|---3/5-5-5-5-5-5--3/5-5-5-5-5-5--|

2ND CHORUS:
E-|------------------------------------------------------|
B-|------------------------------------------------------|
G-|-7--7-7-7-7--9--9-9-9-9--------------11--11-11-11-11--|
D-|-7--7-7-7-7--9--9-9-9-9--7--7-7-7-7--11--11-11-11-11--|
A-|-5--5-5-5-5--7--7-7-7-7--7--7-7-7-7--9---9--9--9--9---|
E-|-------------------------5--5-5-5-5-------------------|
[ Tab from: http://www.guitartabs.cc/tabs/t/the_spazzys/paco_doesnt_love_me_tab.html ]
E-|-------------------------------------------------------|
B-|-------------------------------------------------------|
G-|-7--7-7-7-7--9--9-9-9-9--------------------------------|
D-|-7--7-7-7-7--9--9-9-9-9--------------------------------|
A-|-5--5-5-5-5--7--7-7-7-7--------------------------------|
E-|-------------------------3/5-5-5-5-5-5--3/5-5-5-5-5-5--|

E-|----------------------------------------|
B-|----------------------------------------|
G-|-7--7-7-7-7--9--9-9-9-9-----------------|
D-|-7--7-7-7-7--9--9-9-9-9--7---6---4---2--|
A-|-5--5-5-5-5--7--7-7-7-7--7---6---4---2--|
E-|-------------------------5---4---2---0--|

E-|--------------------------------------------------|
B-|--------------------------------------------------|
G-|-7--7-7-7-7--9------------------------------------|
D-|-7--7-7-7-7--9------------------------------------|
A-|-5--5-5-5-5--7------------------------------------|
E-|--------------------3/5-5-5-5-5-5--3/5-5-5-5-5-5--|

Then comes the solo, no idea, but these are the underpinning chords:
E-|------------------------------------------------------|
B-|------------------------------------------------------|
G-|-7--7-7-7-7--9--9-9-9-9--------------11--11-11-11-11--|
D-|-7--7-7-7-7--9--9-9-9-9--7--7-7-7-7--11--11-11-11-11--|
A-|-5--5-5-5-5--7--7-7-7-7--7--7-7-7-7--9---9--9--9--9---|
E-|-------------------------5--5-5-5-5-------------------|

E-|--------------------------HEY-HO---------LET'S GO------|
B-|-------------------------------------------------------|
G-|-7--7-7-7-7--9--9-9-9-9--------------------------------|
D-|-7--7-7-7-7--9--9-9-9-9--------------------------------|
A-|-5--5-5-5-5--7--7-7-7-7--------------------------------|
E-|-------------------------3/5-5-5-5-5-5--3/5-5-5-5-5-5--|

E-|----------------------------------------|
B-|----------------------------------------|
G-|-7--7-7-7-7--9--9-9-9-9-----------------|
D-|-7--7-7-7-7--9--9-9-9-9--7---6---4---2--|
A-|-5--5-5-5-5--7--7-7-7-7--7---6---4---2--|
E-|-------------------------5---4---2---0--|

E-|--------------------------------------------------|
B-|--------------------------------------------------|
G-|-7--7-7-7-7--9------------------------------------|
D-|-7--7-7-7-7--9------------------------------------|
A-|-5--5-5-5-5--7------------------------------------|
E-|--------------------3/5-5-5-5-5-5--3/5-5-5-5-5-5--|

Then the chorus again and youre done!

E-|------------------------------------------------------|
B-|------------------------------------------------------|
G-|-7--7-7-7-7--9--9-9-9-9--------------11--11-11-11-11--|
D-|-7--7-7-7-7--9--9-9-9-9--7--7-7-7-7--11--11-11-11-11--|
A-|-5--5-5-5-5--7--7-7-7-7--7--7-7-7-7--9---9--9--9--9---|
E-|-------------------------5--5-5-5-5-------------------|

E-|-------------------------------------------------------|
B-|-------------------------------------------------------|
G-|-7--7-7-7-7--9--9-9-9-9--------------------------------|
D-|-7--7-7-7-7--9--9-9-9-9--------------------------------|
A-|-5--5-5-5-5--7--7-7-7-7--------------------------------|
E-|-------------------------3/5-5-5-5-5-5--3/5-5-5-5-5-5--|

E-|----------------------------------------|
B-|----------------------------------------|
G-|-7--7-7-7-7--9--9-9-9-9-----------------|
D-|-7--7-7-7-7--9--9-9-9-9--7---6---4---2--|
A-|-5--5-5-5-5--7--7-7-7-7--7---6---4---2--|
E-|-------------------------5---4---2---0--|

E-|-------------------------------------------------------------------|
B-|-------------------------------------------------------------------|
G-|-7--7-7-7-7--9-----------------------------------------------------|
D-|-7--7-7-7-7--9-----------------------------------------------------|
A-|-5--5-5-5-5--7-----------------------------------------------------|
E-|--------------------3/5-5-5-5-5-5--3/5-5-5-5-5-5--3/5-5-5-5-5-5--5-|

Lyrics:

Hey there, Paco you Italian fiend
Why aren't you in love with me?
I've got a killer crush on you
And it's something that I just can't endure
I know Paco's kind of retarded
He's left me here all broken hearted
I want him to be my main man
He wants another girl to hold his hand

So Hey Paco baby don't you know you break my heart
So sugar do the right thing just c'mon be my retard
You're looking kind of cool
I write your name on all my desks at school
I wanna see your band
I wanna make you understand
That I wanna hold your hand
But there's nothing I can do to convince you
Cos Paco doesn't love me.

And you know I'm not the only one
Whose heart pounds when Paco plays his drums
Cos hits the skins as fast as Marky
I wish he hit my skin that quickly
Hey there Paco you Italian fiend
Why aren't you in love with me?
I've got a killer crush on you
And it's something that I just can't endure
Comments