The Spazzys - Hey Hey Baby Chords & Tabs

 

Hey Hey Baby Chords & Tabs

The Spazzys Chords & Tabs

Version: 1 Type: Bass Tab 0 ratings
1 star 2 stars 3 stars 4 stars 5 stars
comments

Hey Hey Baby Bass Tab

www.spazzys.com
VERSE 1

G|--------------------------------------|
D|--------------------------------------| 
A|--------------------------------------|  X 2
E|-5-5-5-5-5-5-5-5-5-5-5-5-5-5-5-5---2--|

G|---------------------------------------------------------------------------|
D|---------------------------------------------------------------------------| 
A|---------------------------------------------------------------------------| X 3  
E|-7-7-7-7-7-7-7-7--10-10-10-10-10-10-10-10---5-5-5-5-5-5-5-5-5-5-5-5-5--5-6-|

G|---------------------------------------------------------|
D|---------------------------------------------------------| 
A|------------------------------------------------5-5--7-7-|
E|-7-7-7-7-7-7-7-7--10-10-10-10-10-10-10-10---5------------|


CHORUS

G|---------------------------------------------------------------------|
D|---------------------------------------------------------------------| 
A|---------------------------------------------------------------------| X 3
E|-5-5-5-5-5-5-5-5--0-0-0-0-0-0-0-0--7-7-7-7-7-7-7-7--0-0-0-0-0-0-0-0--|

[ Tab from: http://www.guitartabs.cc/tabs/t/the_spazzys/hey_hey_baby_btab.html ]
PRE VERSE
G|---------------------|
D|---------------------|
A|----5-5-5-----7-7-7--|
E|-5---------5---------|


SECOND VERSE

G|--------------------------------------|
D|--------------------------------------| 
A|--------------------------------------|  X 2
E|-5-5-5-5-5-5-5-5-5-5-5-5-5-5-5-5---2--|

G|---------------------------------------------------------------------------|
D|---------------------------------------------------------------------------| 
A|---------------------------------------------------------------------------| X 3  
E|-7-7-7-7-7-7-7-7--10-10-10-10-10-10-10-10---5-5-5-5-5-5-5-5-5-5-5-5-5--5-6-|

G|---------------------------------------------------------|
D|---------------------------------------------------------| 
A|------------------------------------------------5-5--7-7-|
E|-7-7-7-7-7-7-7-7--10-10-10-10-10-10-10-10---5------------|



CHORUS

G|---------------------------------------------------------------------|
D|---------------------------------------------------------------------| 
A|---------------------------------------------------------------------| Till End
E|-5-5-5-5-5-5-5-5--0-0-0-0-0-0-0-0--7-7-7-7-7-7-7-7--0-0-0-0-0-0-0-0--|

E|-5-| FINISH ON
Comments