The Soundtrack Of Our Lives - We'''ll Get By Chords & Tabs

 

We'''ll Get By Chords & Tabs

The Soundtrack Of Our Lives Chords & Tabs

Version: 1 Type: Tab 0 ratings
1 star 2 stars 3 stars 4 stars 5 stars
comments

We'''ll Get By Tab

   
#----------------------------------PLEASE NOTE---------------------------------#
#This file is the author's own work and represents their interpretation of the #
#song. You may only use this file for private study, scholarship, or research. #
#------------------------------------------------------------------------------#

 "We'll Get By"
                       The Soundtrack Of Our Lives
                            Sister Surround EP

 [Verse:]
                                        *Let it ring.
     G                      Fsus2      C           Am7
-|------3----------------------3----------3-----------3---------------------|-
-|-----------------0----------------1*---------------------------1----------|-
-|-----------0----------0--------2-------------0-----------0----------0-----|-
-|--------0----------0------3---------------2-----------2----------2--------|-
-|-------------------------------------3-----------0----------0-------------|-
-|---3----------3-----------------------------------------------------------|-
   Come on let's pretend and be like friends again...

     G
-|------3---------------------|-
-|-----------------0----------|-
-|-----------0----------0-----|-
-|--------0----------0--------|-
-|----------------------------|-
-|---3----------3-------------|-

[ Tab from: http://www.guitartabs.cc/tabs/t/the_soundtrack_of_our_lives/well_get_by_tab.html ]
 [Chorus:]
             *Grasp it with the thumb.
     Fsus2                  Em                     G
-|------3----------------------3----------------------3---------------------|-
-|-----------------1----------------------0----------------------0----------|-
-|-----------2----------0-----------0----------0-----------0----------0-----|-
-|--------3----------3-----------2----------2-----------0----------0--------|-
-|--------------------------------------------------------------------------|-
-|---1*---------1-----------0----------0-----------3----------3-------------|-
   But we'll get by, from time to time

     Fsus2                  Am7                    G
-|------3----------------------3----------------------3---------------------|-
-|-----------------1----------------------1----------------------0----------|-
-|-----------2----------2-----------0----------0-----------0----------0-----|-
-|--------3----------3-----------2----------2-----------0----------0--------|-
-|--------------------------0----------0------------------------------------|-
-|---1----------1----------------------------------3----------3-------------|-
   We can try, from time to time

     G                                                            Ends with: 
-|------3---------------------|-                                 -|---3-----|-
-|-----------------1----0-----|-                                 -|---0-----|-
-|-----------0----------------|-                                 -|---0-----|-
-|--------0----------0--------|-                                 -|---0-----|-
-|----------------------------|-                                 -|---2-----|-
-|---3----------3-------------|-                                 -|---3-----|-
Comments