The Sounds - Hope Youre Happy Now Chords & Tabs

 

Hope Youre Happy Now Chords & Tabs

The Sounds Chords & Tabs

Version: 1 Type: Tab 0 ratings
1 star 2 stars 3 stars 4 stars 5 stars
comments

Hope Youre Happy Now Tab

Song: Rock n' Roll
Band: The Sounds
Tabbed by: Ramone
Email: ramone_ussc@hotmail.com

Maja Ivarsson - vocals 
Felix Rodriguez - guitars 
Johan Bengtsson - bass 
Jesper Anderberg - syntheseizers 
Fredrik Nilsson - drums 

http://www.the-sounds.com/

Tuning: Standard
(low distortion and put the 
tone up a little for best sound)

Intro:

e|---------------------------------------------|
B|---------------------------------------------|
G|--6------------------------------------------|
D|--6------------------------------------------| 
A|--4------------------------------------------|
E|---------------------------------------------|

e|---------------------------------------------|
B|---------------------------------------------|
G|--66666-4-6-4-6--0-4-66666-4-6-4-6--3-4------| 
D|---------------------------------------------| (2X)
A|---------------------------------------------|
E|---------------------------------------------|

e|---------------------------------------------|      e|------|
B|---------------------------------------------|      B|------|
G|--6-------6-9-------999----------------------|      G|--6---|
D|--6-------6/9-------999-9------9-7-7-7-999---| (2X) D|--6\--|
A|--4-------4-7-------777-9------9/7-7-7-999---|      A|--4---|
E|------------------------7------7-5-5-5-777---|      E|------|

Verse

e|----------------------------------------------------------|
B|----------------------------------------------------------|
G|--66-6--66-6--66-6--6-6-6-6----66-6--66-6--44-4--4-4-4-4--|
D|--66-6--66-6--66-6--6-6-6-6----66-6--66-6--44-4--4-4-4-4--| 
A|--44-4--44-4--44-4--4-4-4-4----44-4--44-4--22-2--2-2-2-2--|
E|--**----**----**----*---*------**----**----**----*---*----|
    
(Palm Mute = *)

e|---------------------------------------------|
B|------------------------------------4-3------|
G|--66666-4-6-4-6--2-4-66666-4-6-4-6-----------| 
D|---------------------------------------------| (2X)
A|---------------------------------------------|
E|---------------------------------------------|

e|----------------------------------------------------------|
B|----------------------------------------------------------|
G|--66-6--66-6--66-6--6-6-6-6----66-6--66-6--44-4--4-4-4-4--|
D|--66-6--66-6--66-6--6-6-6-6----66-6--66-6--44-4--4-4-4-4--| 
A|--44-4--44-4--44-4--4-4-4-4----44-4--44-4--22-2--2-2-2-2--|
E|--**----**----**----*---*------**----**----**----*---*----|

e|---------------------------------------------|
B|------------------------------------4-3------|
G|--66666-4-6-4-6--2-4-66666-4-6-4-6-----------| 
D|---------------------------------------------| (4X)
A|---------------------------------------------|
E|---------------------------------------------|

Chorus

e|---------------------------------------------|      
B|---------------------------------------------|      
G|--6-------6-9-------999----------------------|      
D|--6-------6/9-------999-9------9-----7-------| (2X) 
A|--4-------4-7-------777-9------9/----7-------|      
E|------------------------7------7-----5-------|      
[ Tab from: http://www.guitartabs.cc/tabs/t/the_sounds/hope_youre_happy_now_tab.html ]
e|---------------------------------------------|
B|---------------------------------------------|
G|--66666666--99999999---------------------6---|
D|--66666666--99999999-99999999-77777-999--6---| 
A|--44444444--77777777-99999999-77777-999--4---|
E|---------------------77777777-55555-777------|

Verse 

e|----------------------------------------------------------|
B|----------------------------------------------------------|
G|--66-6--66-6--66-6--6-6-6-6----66-6--66-6--44-4--4-4-4-4--|
D|--66-6--66-6--66-6--6-6-6-6----66-6--66-6--44-4--4-4-4-4--| 
A|--44-4--44-4--44-4--4-4-4-4----44-4--44-4--22-2--2-2-2-2--|
E|--**----**----**----*---*------**----**----**----*---*----|

Chorus

e|-----------------------------------------------|      
B|-----------------------------------------------|      
G|--6-------6-9-------999------------------------|      
D|--6-------6/9-------999-9------9-----7----7-7--| (2X) 
A|--4-------4-7-------777-9------9-----7----7-7--|      
E|------------------------7------7-----5----5-5--|   

e|---------------------------------------------|
B|---------------------------------------------|
G|--66666666--99999999---------------------6---|
D|--66666666--99999999-99999999-77777-999--6---| (2X)
A|--44444444--77777777-99999999-77777-999--4---|
E|---------------------77777777-55555-777------|

e|---------------------------------------------|
B|---------------------------------------------|
G|--66666-4-6-4-6--1-4-66666-4-6-4-6--33-44----| 
D|---------------------------------------------| 
A|---------------------------------------------|
E|---------------------------------------------|

e|---------------------------------------------------------------------|
B|---------------------------------------------------------------------|
G|--66666-4-6-4-6--1-4-66666-88-88-8888-99999-6-99-666-88888-44-44-4-4-| 
D|---------------------------------------------------------------------|(2X)
A|---------------------------------------------------------------------|
E|---------------------------------------------------------------------|

e|--------------------------------------------|
B|--------------------------------------------|
G|--66666666--99999999------------------------|
D|--66666666--99999999-99999999-77777-999-----| (2X)
A|--44444444--77777777-99999999-77777-999-----|
E|---------------------77777777-55555-777-----|

End

e|-----------------------------------------------|      
B|-----------------------------------------------|      
G|--6-------6-9-------999------------------------|      
D|--6-------6/9-------999-9------9-----7-7--999--| (2X) 
A|--4-------4-7-------777-9------9-----7-7--999--|      
E|------------------------7------7-----5-5--999--|   

e|--------------------------------------------|      e|-----|
B|--------------------------------------------|      B|-----|
G|--66666666--99999999------------------------|      G|--6--|
D|--66666666--99999999-99999999-77777-999-----| (4X) D|--6--|
A|--44444444--77777777-99999999-77777-999-----|	     A|--4--|
E|---------------------77777777-55555-777-----|      E|-----|


Any Questions? Any Corrections? Request a Tab? Email Above
Comments