The Soulless - New Perspective Chords & Tabs

 

New Perspective Chords & Tabs

The Soulless Chords & Tabs

Version: 1 Type: Tab 0 ratings
1 star 2 stars 3 stars 4 stars 5 stars
comments

New Perspective Tab

   
Tabbed by: Joshua Garcia (joshuag523@aol.com)

Tabs for the song: New Perspective by The Soulless
Please rate and let me know if you have any corrections. Thank you.


Tuning: Drop C (C G C F A D)


Intro/Riff 1
Guitar 1:
D||------------------------------------|--------------------------------------|
A||------------------------------------|--------------------------------------|
F||------------------------------------|--------------------------------------|
C||------------------------------------|---------------------------10---------|
G||---------------------------8---7h8--|---------------------------------7h8--|
C||--0-0-000-0-0-0-8p5p0-000----8------|--0-0-000-0-0-0-8p5p0-000-----10------|
     . . ... . . .       ...    .         . . ... . . .       ...     .


D||------------------------------------|-------------------------------------|
A||------------------------------------|-------------------------------------|
F||------------------------------------|-------------------------------------|
C||------------------------------------|-------------------------------------| x2
G||---------------------------8---7h8--|---------------------------8---7-----|
C||--0-0-000-0-0-0-8p5p0-000----8------|--0-0-000-0-0-0-8p5p0-000----8---10--|
     . . ... . . .       ...    .         . . ... . . .       ...    .



Guitar 2:
D||---------------------------------------|----------------------------------------|
A||---------------------------------------|----------------------------------------|
F||---------------------------------------|----------------------------------------|
C||---------------------------------------|---------------------------14-----------|
G||---------------------------12---10h12--|---------------------------------10h12--|
C||--0-0-000-0-0-0-8p5p0-000-----8--------|--0-0-000-0-0-0-8p5p0-000-----10--------|
     . . ... . . .       ...     .           . . ... . . .       ...     .


D||---------------------------------------|--------------------------------------|
A||---------------------------------------|--------------------------------------|
F||---------------------------------------|--------------------------------------|
C||---------------------------------------|--------------------------------------|
G||---------------------------12---10h12--|---------------------------12---10-7--|
C||--0-0-000-0-0-0-8p5p0-000-----8--------|--0-0-000-0-0-0-8p5p0-000-----8-------|
     . . ... . . .       ...     .           . . ... . . .       ...     .



Riff 2
Guitar 1/2:
D||-----------------------------------------|-----------------------------------------|
A||-----------------------------------------|-----------------------------------------|
F||-----------------------------------------|-----------------------------------------|
C||-----------------------------------------|-----------------------------------------| x2
G||-----------------------------------------|-----------------------------------------|
C||--000--000--0-0--000--000--0-0--8-0-7h8--|--000--000--0-0--000--000--0-0--8-0-7p3--|
     ...  ...  . .  ...  ...  . .    .         ...  ...  . .  ...  ...  . .    .



Riff 3
Guitar 1:
D||---------------------------------------|-------------------------------------|
A||---------------------------------------|-------------------------------------|
F||---------------------------------------|-------------------------------------|
C||---------------------------------------|-------------------------------------|
G||--8-5-----8/10\8-7-8-------7------8----|------8---7---7/8--8/10\8-7-7-8-7-5--|
C||------7/8------------888-----888----8--|--5-5---5---5------------------------|
                        ...     ...    .     . .   .   .


D||---------------------------------------|-------------------------------------|
A||---------------------------------------|-------------------------------------|
F||---------------------------------------|-------------------------------------|
C||---------------------------------------|----------------------------7-8-7----|
G||--8-5-----8/10\8-7-8-------7------8----|------8---7---7/8--8/10\8-7-------8--|
C||------7/8------------888-----888----8--|--5-5---5---5------------------------|
                        ...     ...    .     . .   .   .


Guitar 2:
D||----------------------------|
A||----------------------------|
F||----------------------------|
C||--8~------------5~------3~--| x2
G||--8~------------5~------3~--|
C||--8~------------5~------3~--|



Riff 4
Guitar 1:
D||-----------------------------------|-----------------------------------|
A||-----------------------------------|-----------------------------------|
F||-----------------------------------|-----------------------------------|
C||--3-----3-----3-----3-----3--------|--3-----3-----3-----3-----3-7------|
G||----5-----5-----5-----5-----5-3-7--|----5-----5-----5-----5-------3-7--|
C||------0-----0-----0-----0----------|------0-----0-----0-----0----------|
         .     .     .     .                 .     .     .     .


Guitar 2:
D||------|
A||------|
F||------|
C||--0~--|
G||--0~--|
C||--0~--|



Guitar 1:
D||-----------------------------------|-----------------------------------|
A||-----------------------------------|-----------------------------------|
F||-----------------------------------|-----------------------------------|
C||--3-----3-----3-----3-----3--------|--3-----3-----3-----3-----3-5---5--|
G||----5-----5-----5-----5-----5-3-7--|----5-----5-----5-----5------------|
C||------0-----0-----0-----0----------|------0-----0-----0-----0-----0----|
         .     .     .     .                 .     .     .     .     .


Guitar 2:
D||------------------------------------|-----------------------------------|
A||------------------------------------|-----------------------------------|
F||------------------------------------|-----------------------------------|
C||--7-----7-----7-----7-----7---------|--7-----7-----7-----7-----7-8---8--|
G||----8-----8-----8-----8-----8-7-10--|----8-----8-----8-----8------------|
C||------0-----0-----0-----0-----------|------0-----0-----0-----0-----0----|
         .     .     .     .                  .     .     .     .     .




Riff 3
Guitar 1:
D||---------------------------------------|-------------------------------------|
A||---------------------------------------|-------------------------------------|
F||---------------------------------------|-------------------------------------|
C||---------------------------------------|-------------------------------------|
G||--8-5-----8/10\8-7-8-------7------8----|------8---7---7/8--8/10\8-7-7-8-7-5--|
C||------7/8------------888-----888----8--|--5-5---5---5------------------------|
                        ...     ...    .     . .   .   .


D||---------------------------------------|-------------------------------------|
A||---------------------------------------|-------------------------------------|
F||---------------------------------------|-------------------------------------|
C||---------------------------------------|----------------------------7-8-7----|
G||--8-5-----8/10\8-7-8-------7------8----|------8---7---7/8--8/10\8-7-------8--|
C||------7/8------------888-----888----8--|--5-5---5---5------------------------|
                        ...     ...    .     . .   .   .


Guitar 2:
D||----------------------------|
A||----------------------------|
F||----------------------------|
C||--8~------------5~------3~--| x2
G||--8~------------5~------3~--|
C||--8~------------5~------3~--|



Guitar 1:
D||---------------------------------------|-------------------------------------|
A||---------------------------------------|-------------------------------------|
F||---------------------------------------|-------------------------------------|
C||---------------------------------------|-------------------------------------|
G||--8-5-----8/10\8-7-8-------7------8----|------8---7---7/8--8/10\8-7-7-8-7-5--|
C||------7/8------------888-----888----8--|--5-5---5---5------------------------|
                        ...     ...    .     . .   .   .


D||---------------------------------------|-------------------------------------|
A||---------------------------------------|-------------------------------------|
F||---------------------------------------|-------------------------------------|
C||---------------------------------------|----------------------------7-8-7----|
G||--8-5-----8/10\8-7-8-------7------8----|------8---7---7/8--8/10\8-7-------8--|
C||------7/8------------888-----888----8--|--5-5---5---5------------------------|
                        ...     ...    .     . .   .   .


Guitar 2:
D||-------------------------------------|------------------------------------|
A||-------------------------------------|------------------------------------|
F||-------------------------------------|------------------------------------|
C||--7-------7/8\7-5-7------5------7----|------7---5---5h7--7-8-7-5-5-7-5----|
G||----8--------------------------------|---------------------------------8--|
C||------7h8-----------888----888----8--|--5-5---5---5-----------------------|
                       ...    ...    .     . .   .   .


D||-------------------------------------|------------------------------------|
A||-------------------------------------|------------------------------------|
F||-------------------------------------|---------------------------5-7-5----|
C||--7-------7/8\7-5-7------5------7----|------7---5---5h7--7-8-7-5-------8--|
G||----8--------------------------------|------------------------------------|
C||------7h8-----------888----888----8--|--5-5---5---5-----------------------|
                       ...    ...    .     . .   .   .



Riff 5
Guitar 1:
D||-----------------------------------------|-----------------------------------------|
A||-----------------------------------------|-----------------------8-----------------|
F||--9h10p9-5/7-7-10-7-10-7-9-7-7-9-7-9h10--|--9h10p9-5/7-7-10-7-10---7-7-10-7-7-9-7--|
C||-----------------------------------------|-----------------------------------------| x2
G||-----------------------------------------|-----------------------------------------|
C||-----------------------------------------|-----------------------------------------|
                .    .    .   . .   .                     .    .      . .    . .   .


Guitar 2:
D||----------------------------------------------------------------------|
A||----------------------------------------------------------------------|
F||----------------------------------------------------------------------|
C||----------------------------------------------------------------------| x2
G||----------------------------------------------------------------------|
C||--00000000000000000000000000000000-3333333333333333-5555555555555555--|


[ Tab from: http://www.guitartabs.cc/tabs/t/the_soulless/new_perspective_tab.html ]
Guitar 1:
D||-----------------------------------------|-----------------------------------------|
A||-----------------------------------------|-----------------------8-----------------|
F||--9h10p9-5/7-7-10-7-10-7-9-7-7-9-7-9h10--|--9h10p9-5/7-7-10-7-10---7-7-10-7-7-9-7--|
C||-----------------------------------------|-----------------------------------------| x2
G||-----------------------------------------|-----------------------------------------|
C||-----------------------------------------|-----------------------------------------|
                .    .    .   . .   .                     .    .      . .    . .   .


Guitar 2:
D||-----------------------------------------------------|
A||-----------------------------------------------------|
F||--12h14p12-9/10-10-14-10-14-10-12-10-10-12-10-12h14--|
C||-----------------------------------------------------|
G||-----------------------------------------------------|
C||-----------------------------------------------------|
                   .     .     .     .  .     .


D||-----------------------------------------------------|
A||----------------------------11-----------------------|
F||--12h14p12-9/10-10-14-10-14----10-10-14-10-10-12-10--|
C||-----------------------------------------------------| x2
G||-----------------------------------------------------|
C||-----------------------------------------------------|
                   .     .        .  .     .  .     .



Riff 2
Guitar 1/2:
D||-----------------------------------------|-----------------------------------------|
A||-----------------------------------------|-----------------------------------------|
F||-----------------------------------------|-----------------------------------------|
C||-----------------------------------------|-----------------------------------------| x2
G||-----------------------------------------|-----------------------------------------|
C||--000--000--0-0--000--000--0-0--8-0-7h8--|--000--000--0-0--000--000--0-0--8-0-7p3--|
     ...  ...  . .  ...  ...  . .    .         ...  ...  . .  ...  ...  . .    .




Riff 6
Guitar 1:
D||------------------------------------------|------------------------------------------|
A||------------------------------------------|------------------------------------------|
F||------------------------------------------|------------------------------------------|
C||---------------------8----7----5h7p5------|-------------------12---10---8h10p8-------| x2
G||--8-5---5---7h8p7--------------------7h8--|----8---10--------------------------12-8--|
C||------0---0-------10---10---10------------|--8---8----8-8-888----8----8--------------|
         .   .       .    .    .                .   .    . . ...    .    .


Guitar 2:
D||------------------------------------------|---------------------------------------|
A||------------------------------------------|---------------------------------------|
F||------------------------------------------|------------------10---9---7h9p7-------|
C||---------------------8----7----5h7p5------|----7---8------------------------10-7--| x2
G||--8-5---5---7h8p7--------------------7h8--|---------------------------------------|
C||------0---0-------10---10---10------------|--8---8---8-8-888----8---8-------------|
         .   .       .    .    .                .   .   . . ...    .   .



Riff 5
Guitar 1:
D||-----------------------------------------|-----------------------------------------|
A||-----------------------------------------|-----------------------8-----------------|
F||--9h10p9-5/7-7-10-7-10-7-9-7-7-9-7-9h10--|--9h10p9-5/7-7-10-7-10---7-7-10-7-7-9-7--|
C||-----------------------------------------|-----------------------------------------| x4
G||-----------------------------------------|-----------------------------------------|
C||-----------------------------------------|-----------------------------------------|
                .    .    .   . .   .                     .    .      . .    . .   .


Guitar 2:
D||-----------------------------------------------------|
A||-----------------------------------------------------|
F||--12h14p12-9/10-10-14-10-14-10-12-10-10-12-10-12h14--|
C||-----------------------------------------------------|
G||-----------------------------------------------------|
C||-----------------------------------------------------|
                   .     .     .     .  .     .


D||-----------------------------------------------------|
A||----------------------------11-----------------------|
F||--12h14p12-9/10-10-14-10-14----10-10-14-10-10-12-10--|
C||-----------------------------------------------------| x4
G||-----------------------------------------------------|
C||-----------------------------------------------------|
                   .     .        .  .     .  .     .



Riff 4
Guitar 1:
D||----------------------------------------|-----------------------------------|
A||----------------------------------------|-----------------------------------|
F||----------------------------------------|-----------------------------------|
C||--3-----3-----3-----3-----3---------x3--|--3-----3-----3-----3-----3-5---5--|
G||----5-----5-----5-----5-----5-3-7-------|----5-----5-----5-----5------------|
C||------0-----0-----0-----0---------------|------0-----0-----0-----0-----0----|
         .     .     .     .                      .     .     .     .     .


Guitar 2:
D||------|
A||------|
F||------|
C||--0~--|
G||--0~--|
C||--0~--|



Guitar 1:
D||----------------------------------------|-----------------------------------|
A||----------------------------------------|-----------------------------------|
F||----------------------------------------|-----------------------------------|
C||--3-----3-----3-----3-----3---------x3--|--3-----3-----3-----3-----3-5---5--|
G||----5-----5-----5-----5-----5-3-7-------|----5-----5-----5-----5------------|
C||------0-----0-----0-----0---------------|------0-----0-----0-----0-----0----|
         .     .     .     .                      .     .     .     .     .


Guitar 2:
D||----------------------------------------|-----------------------------------|
A||----------------------------------------|-----------------------------------|
F||----------------------------------------|-----------------------------------|
C||--7-----7-----7-----7-----7---------x3--|--7-----7-----7-----7-----7-8---8--|
G||----8-----8-----8-----8-----8-7-10------|----8-----8-----8-----8------------|
C||------0-----0-----0-----0---------------|------0-----0-----0-----0-----0----|
         .     .     .     .                      .     .     .     .     .




Riff 1
Guitar 1/2:
D||------------------------------------|--------------------------------------|
A||------------------------------------|--------------------------------------|
F||------------------------------------|--------------------------------------|
C||------------------------------------|---------------------------10---------|
G||---------------------------8---7h8--|---------------------------------7h8--|
C||--0-0-000-0-0-0-8p5p0-000----8------|--0-0-000-0-0-0-8p5p0-000-----10------|
     . . ... . . .       ...    .         . . ... . . .       ...     .


D||------------------------------------|-------------------------------------|
A||------------------------------------|-------------------------------------|
F||------------------------------------|-------------------------------------|
C||------------------------------------|-------------------------------------|
G||---------------------------8---7h8--|---------------------------8---7-----|
C||--0-0-000-0-0-0-8p5p0-000----8------|--0-0-000-0-0-0-8p5p0-000----8---10--|
     . . ... . . .       ...    .         . . ... . . .       ...    .



Guitar 1:
D||------------------------------------|--------------------------------------|
A||------------------------------------|--------------------------------------|
F||------------------------------------|--------------------------------------|
C||------------------------------------|---------------------------10---------|
G||---------------------------8---7h8--|---------------------------------7h8--|
C||--0-0-000-0-0-0-8p5p0-000----8------|--0-0-000-0-0-0-8p5p0-000-----10------|
     . . ... . . .       ...    .         . . ... . . .       ...     .


D||------------------------------------|-------------------------------------|
A||------------------------------------|-------------------------------------|
F||------------------------------------|-------------------------------------|
C||------------------------------------|-------------------------------------|
G||---------------------------8---7h8--|---------------------------8---7-----|
C||--0-0-000-0-0-0-8p5p0-000----8------|--0-0-000-0-0-0-8p5p0-000----8---10--|
     . . ... . . .       ...    .         . . ... . . .       ...    .



Guitar 2:
D||---------------------------------------|----------------------------------------|
A||---------------------------------------|----------------------------------------|
F||---------------------------------------|----------------------------------------|
C||---------------------------------------|---------------------------14-----------|
G||---------------------------12---10h12--|---------------------------------10h12--|
C||--0-0-000-0-0-0-8p5p0-000-----8--------|--0-0-000-0-0-0-8p5p0-000-----10--------|
     . . ... . . .       ...     .           . . ... . . .       ...     .


D||---------------------------------------|--------------------------------------|
A||---------------------------------------|--------------------------------------|
F||---------------------------------------|--------------------------------------|
C||---------------------------------------|--------------------------------------|
G||---------------------------12---10h12--|---------------------------12---10-7--|
C||--0-0-000-0-0-0-8p5p0-000-----8--------|--0-0-000-0-0-0-8p5p0-000-----8-------|
     . . ... . . .       ...     .           . . ... . . .       ...     .



Guitar 1/2:
D||-------------|
A||-------------|
F||-------------|
C||--3~-----5~--|
G||--3~-----5~--|
C||--3~-----5~--|



Riff 5 / Outro
Guitar 1:
D||-----------------------------------------|-----------------------------------------|
A||-----------------------------------------|-----------------------8-----------------|
F||--9h10p9-5/7-7-10-7-10-7-9-7-7-9-7-9h10--|--9h10p9-5/7-7-10-7-10---7-7-10-7-7-9-7--|
C||-----------------------------------------|-----------------------------------------| x4
G||-----------------------------------------|-----------------------------------------|
C||-----------------------------------------|-----------------------------------------|
                .    .    .   . .   .                     .    .      . .    . .   .


Guitar 2:
D||-----------------------------------------------------|
A||-----------------------------------------------------|
F||--12h14p12-9/10-10-14-10-14-10-12-10-10-12-10-12h14--|
C||-----------------------------------------------------|
G||-----------------------------------------------------|
C||-----------------------------------------------------|
                   .     .     .     .  .     .


D||-----------------------------------------------------|
A||----------------------------11-----------------------|
F||--12h14p12-9/10-10-14-10-14----10-10-14-10-10-12-10--|
C||-----------------------------------------------------| x4
G||-----------------------------------------------------|
C||-----------------------------------------------------|
                   .     .        .  .     .  .     .



Guitar 1:
D||-------|
A||-------|
F||--10~--|
C||-------|
G||-------|
C||-------|


Guitar 2:
D||------|
A||------|
F||------|
C||--0~--|
G||--0~--|
C||--0~--|




Tablature Legend
----------------
 h   - hammer-on
 p   - pull-off
 b   - bend
 r   - release bend
 *   - pinch harmonic
 '   - natural harmonic
 x   - mute note
 .   - palm mute
 /   - slide down
 \   - slide up
Comments