The Sly Caps - The Boring Life Chords & Tabs

 

The Boring Life Chords & Tabs

The Sly Caps Chords & Tabs

Version: 2 Type: Tab 0 ratings
1 star 2 stars 3 stars 4 stars 5 stars
comments

The Boring Life Tab

   
Song: The Boring Life
Artist: The Sly Caps
Tabbed by: Steve Lanno
E-Mail: johnyknoxvillejr@yahoo.com

THIS SONG RULES!!!

Intro:
e|--------------------------------------------------
B|--------------------------------------------------
G|-3-3h5-5-5/7-5-3-5-3-5----------------------------
D|-----------------------5-3-1-3/5-3-3-3h5-3-1-3-1--
A|--------------------------------------------------
E|--------------------------------------------------

Intro/Verse:
  D#  C G#  A#
e|------------
B|------------
G|-8--5-------
D|-8--5--6--8-
A|-6--3--6--8-
E|-------4--6-
"And nobody likes me.."
[ Tab from: http://www.guitartabs.cc/tabs/t/the_sly_caps/the_boring_life_tab_ver_2.html ]
Pre-chorus:
   D#       C              G#           A#
e|-----------------------------------------
B|-----------------------------------------
G|-8--------5------------------------------
D|-8--------5--------------6------------8--
A|-6--------3--------------6------------8--
E|-------------------------4------------6--
 "Who am i kiddin nothing ever goes my way"

Chorus:
    G# A#  D# D  C
e|------------------
B|------------------
G|---------8--7--5--
D|--6--8---8--7--5--
A|--6--8---6--5--3--
E|--4--6------------
"Why would I think that"

End On:
   D#
e|----
B|----
G|-8--
D|-8--
A|-6--
E|----

That's what I figured out so far.. no one else wants to do it so i decided to.
any questions comments or requests e-mail me at johnyknoxvillejr@yahoo.com
Comments