The Sly Caps - The Boring Life Chords & Tabs

 

The Boring Life Chords & Tabs

The Sly Caps Chords & Tabs

Version: 1 Type: Tab 0 ratings
1 star 2 stars 3 stars 4 stars 5 stars
comments

The Boring Life Tab

   
Hard song to learn, the beat is probably the hardest thing to get
Tuned down, but it sounds cool even if you don't tune it down so here it is
X=lift up lightly so there isnt a sound (choke)
and this means just hit it /
~~=slide
B=bend
P=pull off
^=up of course and *=down

Only one verse

Strumming patern consists of: * * ^ ^ * ^ for the verse
E-*-*-^-^-*-^----------------4--6-
--6-X-/-/-X-X---3-X-/-/-X-X--6--8-
--8-X-/-/-X-X---5-X-/-/-X-X--6--8-
--8-X-/-/-X-X---5-X-/-/-X-X-------    do that same pattern for 4 and 6
----------------------------------                             6     8
e---------------------------------                             6     8

2nd Guitar
E-----------------------------------------------------------------------------------
-------------------------------------------------6----------------------------------
--------------------------P-----P----5---5--3--5---5--3--3~~5~~3--3--3~~5~~3--1-3-1-
--3--3~~5--3--5--3--5--3--5--3--5--3---3--------------------------------------------
--------------------^B--------------------------------------------------------------
e-----------------------------------------------------------------------------------


[ Tab from: http://www.guitartabs.cc/tabs/t/the_sly_caps/the_boring_life_tab.html ]
Chorus
  * * ^ * ^
E-4-X-/-X-X---6-X-/-/-X-X-------------------------------
--6-X-/-X-X---8-X-/-/-X-X--6-X-X--5-X-X-----3-X-/-/-X-X-
--6-X-/-X-X---8-X-/-/-X-X--8-X-X--7-X-X-----5-X-/-/-X-X-
-----------------------------8-X-X--7-X-X---5-X-/-/-X-X-
--------------------------------------------------------
e-------------------------------------------------------

Solo-pretty hard to tab, but it's like all hammer-ons and pull-offs
please tell me if you have any corrections on this, this was the hardest part
E---------------------------------------------------
----------------------------------------------------
----------------------------------------------------
----------------------------------------------------
------H--P-----H--P---------------------------------
e-11---13---11--15----11--13--11--15--11--16-11--15-
 Do this part like four times then go to ^^^^ but follow the same hammer-on and pull-off thing


Just for the fun of it try this out, the bass part. on the parts where its like two of one note like five - five, hit it down  up
E--------------------------------------------------------
--6-6----------------6--------------8------------------8-
------5--8------8--5----5-5--6-6--5---5--6--8-8--6--5----
------------5-5------------------------------------------
---------------------------------------------------------
e--------------------------------------------------------
Comments