The Seekers - Georgie Girl Chords & Tabs

 

The Seekers Chords & Tabs

Version: 1 Type: Tab 0 ratings
1 star 2 stars 3 stars 4 stars 5 stars
comments

Georgie Girl Tab

-----------------------------------------------------------------------------
			     Georgie Girl-The Seekers
-----------------------------------------------------------------------------
Tabbed by:
Email:
[ Tab from: http://www.guitartabs.cc/tabs/t/the_seekers/georgie_girl_tab.html ]
Tuning: Standard
   Hey   there    Georgie  girl       swinging down the street so fancy free
e|---------6---------------------------------------------4--------4------2---|
B|---4------7---------9------7---------4-----------------4----------5----2---|
G|---4-------8--------9----6-----------4-----------------4-----------6----3--|
D|---4-------8--------9--------8-------4--------------------6--------6-----4-|
A|-2-------6-------7------------------2---------------------6------4---------|
E|---------6---------------------------------------------4---------4---------|
   Nobody you meet could ever see the loneliness there   inside you
e|------------4----------------------------------------------------------------|
B|--4---------4------------9------------11-------------------------------------|
G|--4---------4------------9------------11-------------------------------------|
D|--4-----------6----------9------------11-------------------------------------|
A|-2------------6--------7------------9----------------------------------------|
E|------------4----------------------------------------------------------------|
   Hey   there   Georgie Girl         why do all the boys just pass you by
e|-------6--------------------------------------------4-------4---------2-------|
B|--4-----7---------9-------7----------4--------------4--------5--------2-------|
G|--4------8--------9-----6------------4--------------4---------6---------3-----|
D|--4------8--------9---------8--------4----------------6--------6---------4----|
A|-2-----6--------7-------------------2-----------------6------4----------------|
E|-------6--------------------------------------------4--------4----------------|
   Could it be you just donít try,  or is it the clothes you wear
e|-----------------4-----------------------------------------------------------|
B|--4--------------4------------9-------------------11-------------------------|
G|--4--------------4------------9-------------------11-------------------------|
D|--4-----------------6---------9-------------------11-------------------------|
A|-2------------------6-------7-------------------9----------------------------|
E|-----------------4-----------------------------------------------------------|
   Youíre always window shopping, but never stopping to buy
e|-4-------7--------------------------------------------7-------------------------|
B|-4-------7--------11-------------------9--------------7-------------------------|
G|-4--------8-------11-------------------9---------------8------------------------|
D|---6-------9------11-------------------9----------------9-----------------------|
A|---6-------9----9--------------------7------------------9-----------------------|
E|-4-------7--------------------------------------------7-------------------------|
   So shed those dowdy feathers and fly, a little bit
e|---------------------------------------------------------------------------|
B|---8--------------9-----------------11-------------------------------------|
G|---8--------------9-----------------11-------------------------------------|
D|---8--------------9-----------------11-------------------------------------|
A|-6-------------7------------------9----------------------------------------|
E|---------------------------------------------------------------------------|
Comments