The Script - Dead Man Walking Chords & Tabs

 

Dead Man Walking Chords & Tabs

The Script Chords & Tabs

Version: 1 Type: Bass Tab 0 ratings
1 star 2 stars 3 stars 4 stars 5 stars
comments

Dead Man Walking Bass Tab

Title: Dead Man Walking
Artist: The Script
Album: Science and Faith
Track: 7
Tab by: Hamade
Tuning: Standard EADG

Listen to the song for the timing, it's pretty easy but a very good song nonetheless.

Intro (optional: Bass normally comes on at first verse but you can play this if you wish)
G|16-16-------------|
D|------14~-12-12-14|
A|------------------|
E|------------------|

Verse 1
G|------------------|
D|------------------|
A|-2--2-0~--5-5-7~--|
E|------------------|

Pre-Chorus (only played before first chorus nowhere else)
G|------------------|
D|------------------|
A|/5--5---5--5---5~-|
E|------------------|

Chorus
G|------------------|-----------------|
D|------------------|---------22222222|
A|00000000/77777777\|-----------------|
E|------------------|22222222---------|
[ Tab from: http://www.guitartabs.cc/tabs/t/the_script/dead_man_walking_btab.html ]
Post-Chorus
G|-------------------------|
D|-------------------------|
A|------0-0--7-7--5-5-5p2h5|
E|-2-2---------------------|

Verse 2
G|------------------|
D|------------------|
A|-2--2-0~--5-5-7~--|
E|------------------|

Chorus 2
G|------------------|-----------------|
D|------------------|---------22222222|
A|00000000/77777777\|-----------------|
E|------------------|22222222---------|

Bridge
G|--------------------------|
D|--------------------------|
A|------00-0--77-7--55-55-55|
E|-22-2---------------------|

Chorus 3
G|------------------|-----------------|
D|------------------|---------22222222|
A|00000000/77777777\|-----------------|
E|------------------|22222222---------| (There are some fills played here which are 
just 2 frets up or down from the root note)

End On
A|0~--------| (Hold for one or two bars, depends on yourself really what you prefer both 
good.
Comments