The Script - Breakeven Chords & Tabs

 

Breakeven Chords & Tabs

The Script Chords & Tabs

Version: 2 Type: Tab 0 ratings
1 star 2 stars 3 stars 4 stars 5 stars
comments

Breakeven Tab

Standard Tuning

Tabbed by: Blassassin

Intro

E|----------------------------------------------|
B|----------------------------------------------|
G|----7---7---7---7---3-2---2---3---3-----------|
D|--8---8---8---8---8-----3---5---5---5---------| x 4
A|--6-------------------------------------------|
E|----------6---------1-------3-----------------|

Verse

E|----------------------------------------------|
B|----------------------------------------------|
G|----3---3---3---3---3---3---3---3-------------|
D|------------------0---0---1---1---------------| x 9
A|--------------------------3---3---------------|
E|--3---3---1---1-------------------------------|

Chorus

E|----------------------------------------------|
B|----------------------------------------------|
G|----7---7---7---7---3-2---2---3---3-----------|
D|--8---8---8---8---8-----3---5---5---5---------| x 4
A|--6-------------------------------------------|
E|----------6---------1-------3-----------------|

Verse

E|----------------------------------------------|
B|----------------------------------------------|
G|----3---3---3---3---3---3---3---3-------------|
D|------------------0---0---1---1---------------| x 5
A|--------------------------3---3---------------|
E|--3---3---1---1-------------------------------|

Chorus

E|----------------------------------------------|
B|----------------------------------------------|
G|----7---7---7---7---3-2---2---3---3-----------|
D|--8---8---8---8---8-----3---5---5---5---------| x 6
A|--6-------------------------------------------|
E|----------6---------1-------3-----------------|

Breakdown? Iunno that bit after

E|----------------------------------------------|	|
B|----------1-1---3---3-3-4-3-------------------|	|
G|--2h3-2h3-------------------------------------|	|
D|------------------0---------------------------|	|
A|----------------------------------------------|	|
E|----------------------------------------------|	|
							| x 2
E|--------------------------1-------------------|	|
B|----------1-1---3---3-3-----------------------|	|
G|--2h3-2h3-------------------------------------|	|
D|------------------0---------------------------|	|
A|----------------------------------------------|	|
E|----------------------------------------------|	|
[ Tab from: http://www.guitartabs.cc/tabs/t/the_script/breakeven_tab_ver_2.html ]
E|---6-6-6-6---|
B|---8-8-8-8---|
G|---7-7-7-7---|
D|---8-8-8-8---| x 4
A|---6-6-6-6---|
E|-------------|

Verse

E|----------------------------------------------|
B|----------------------------------------------|
G|----3---3---3---3---3---3---3---3-------------|
D|------------------0---0---1---1---------------| x 4
A|--------------------------3---3---------------|
E|--3---3---1---1-------------------------------|

Chorus

E|----------------------------------------------|
B|----------------------------------------------|
G|----7---7---7---7---3-2---2---3---3-----------|
D|--8---8---8---8---8-----3---5---5---5---------| x.. Until the end of the song
A|--6-------------------------------------------|
E|----------6---------1-------3-----------------|

I'm still alive but I'm barely breathing
Just prayed to a god that I don't believe in
Cos I got tI'me while she got freedom
Cos when a heart breaks no it don't break even

Her best days will be some of my worst
She finally met a man that's gonna put her 1st
While I'm wide awake she's no trouble sleeping
Cos when a heart breaks no it don't breakeven

What am I suppose to do when the best part of me was always you
What am I suppose to say when I'm all choked up and your ok
I'm falling to pieces
I'm falling to pieces

They say bad things happen for a reason
But not wise words gonna stop the bleeding
Cos she's moved on while I'm still grieving
Cos when a heart breaks no it don't breakeven
[ Find more Lyrics at www.mp3lyrics.org/rkIS ]

What am I suppose to do when the best part of me was always you
What am I suppose to say when I'm all choked up and your ok
I'm falling to pieces
I'm falling to pieces
(One still in love while the other ones leaving
Cos when a heart breaks no it don't breakeven)

You got his heart and my heart and none of the pain
You took your suitcase, I took the blame.
Now I'm tryna make sense of what little remains
Cos you left me with no love, no love to my name.

I'm still alive but I'm barely breathing
Just prayed to a god that I don't believe in
Cos I got tI'me while she got freedom
Cos when a heart breaks no it don't break even

What am I gonna do when the best part of me was always you
What am I suppose to say when I'm all choked up and your ok
I'm falling to pieces
I'm falling to pieces
(One still in love while the other ones leaving
Cos when a heart breaks no it don't breakeven)
Comments