The Salads - Get Loose Chords & Tabs

 

Get Loose Chords & Tabs

The Salads Chords & Tabs

Version: 1 Type: Tab 0 ratings
1 star 2 stars 3 stars 4 stars 5 stars
comments

Get Loose Tab

   
-------------------------------------------------------------------------------
			     GET LOOSE - The Salads
-------------------------------------------------------------------------------

Tabbed by: Jeff Gilchrist
Email: beefy_101@hotmail.com

Tuning: Dropped D 
        e B G D A D

OK, I've seen one tab on the net for this song and it was awful.
This is better.



Short Intro Thing
"1 2 3 4"

e|---------------------------------------------------------------------------|
B|---------------------------------------------------------------------------|
G|---------------------------------------------------------------------------|
D|-7-----5-----4-------12----------------------------------------------------|
A|-7-x4--5-x4--4-x4----12----------------------------------------------------|
D|-7-----5-----4-------12----------------------------------------------------|

Intro
1st Guitar
e|---------------------------------------------------------------------------|
B|---------------------------------------------------------------------------|
G|-7-7-7--6--7--9--7-----7-7-7--11--9-9-7-----7-7-7--6--7--9--7--9-9-9-9-9-9-|
D|-x-x-x--x--x--x--x-----x-x-x--x---x-x-x-----x-x-x--x--x--x--x--x-x-x-x-x-x-|
A|-5-5-5--4--5--7--5-----5-5-5--11--7-7-7-----5-5-5--4--5--7--5--7-7-7-7-7-7-|
D|---------------------------------------------------------------------------|

Intro
2nd Guitar (strumming not shown and strumming numbers are approximate)
e|---------------------------------------------------------------------------|
B|---------------------------------------------------------------------------|
G|---------------------------------------------------------------------------|
D|-0-----5-----0-----5-----0-----5-----7-------------------------------------|
A|-0-x4--5-x4--0-x4--5-x4--0-x4--5-x4--7-x8----------------------------------|
D|-0-----5-----0-----5-----0-----5-----7-------------------------------------|


Verse (strumming not shown again)

Use ska upstroke
You have to fiddle with the strumming of these chords, listen to the song
[ Tab from: http://www.guitartabs.cc/tabs/t/the_salads/get_loose_tab.html ]
e|--5-----3------------------------------------------------------------------|
B|--7-x2--3-x4---------------------------------------------------------------|
G|--7-----4------------------------------------------------------------------|
D|---------------------------------------------------------------------------|
A|---------------------------------------------------------------------------|
D|---------------------------------------------------------------------------|

Chorus (it's the same as 2nd Guitar intro)

e|---------------------------------------------------------------------------|
B|---------------------------------------------------------------------------|
G|---------------------------------------------------------------------------|
D|-0-----5-----0-----5-----0-----5-----7-------------------------------------|
A|-0-x4--5-x4--0-x4--5-x4--0-x4--5-x4--7-x8----------------------------------|
D|-0-----5-----0-----5-----0-----5-----7-------------------------------------|


Interlude/Solo

1st Guitar (play this twice)
e|---------------------------------------------------------------------------|
B|---------------------------------------------------------------------------|
G|---------------------------------------------------------------------------|
D|-0-0---------0-0----------0-0---------------(-7--9--10--12-)---------------|
A|-0-0-(pause)-0-0-(pause)--0-0-(pause)-------(-7--9--10--12-)---------------|
D|-0-0---------0-0----------0-0---------------(-7--9--10--12-)---------------|

					     (2nd time through)	

2nd Guitar
e|---------------------------------------------------------------------------|
B|---------------------------------------------------------------------------|
G|-6-7-9-7---11-9-9-7---6-7-9-7-9-11-12-14-----------------------------------|
D|-x-x-x-x----x-x-x-x---x-x-x-x-x-x--x--x------------------------------------|
A|-4-5-7-5----9-7-7-5---4-5-5-5-7-9--10-12-----------------------------------|
D|---------------------------------------------------------------------------|

You can figure out what order everything goes in, and I'm not gonna bother
with that small outro part.  It has some sort of delay effect using ska
chords I believe.

If you are gonna use my tab for another site please give me credit.
Questions or comments: beefy_101@hotmail.com
Comments