The Rumors - Summer Hills Chords & Tabs

 

Summer Hills Chords & Tabs

The Rumors Chords & Tabs

Version: 1 Type: Tab 0 ratings
1 star 2 stars 3 stars 4 stars 5 stars
comments

Summer Hills Tab

/Artist /The Rumors
/Song /Summer Hills 
/album /Live Wire 
................................
when playing the song summer hills open up with a wah effect after that 
use light distortion 
..............................
Guitar Riff 1 
[ Tab from: http://www.guitartabs.cc/tabs/t/the_rumors/summer_hills_tab.html ]
E----------------------------------------------------------
B----------------------------------------------------------
G----------------------------------------------------------
D-2--3-5-5-5-5-5--2--5-7-7-7-7-7--2--7-7-7-5-5-5-2
A-0--5-7-7-7-7-7--0--3-5-5-5-5-5--0--5-5-5-3-3-3-0
E----------------------------------------------------------
Verse 1 
E--------------------------------------------------------------------
B--------------------------------------------------------------------
G--------------------------------------------------------------------
D-0-0-3-0-3-3-0-3-0--0-0-5-0-5-5-0-5-0--0-0-7-0-7-7-0-7-0-- X5
A-5-5-5-5-5-5-5-5-5--3-3-3-3-3-3-3-3-3--5-5-5-5-5-5-5-5-5--
E---------------------------------------------------------------------
Chorus 
E-------------------------------------
B-------------------------------------
G-------------------------------------
D-3-3-3-3--1-1-1--3-3-3-3--1-1-1- X4
A-1-1-1-1--3-3-3--1-1-1-1--3-3-3-
E-------------------------------------
Verse2
E-----------------------------------
b-----------------------------------
G-----------------------------------
D-6-6-6-6-6--2--2--6-6-6-6-6--2 X5
A-4-4-4-4-4--0--0--4-4-4-4-4--0
E-----------------------------------
Chorus 
E-------------------------------------
B-------------------------------------
G-------------------------------------
D-3-3-3-3--1-1-1--3-3-3-3--1-1-1- X4
A-1-1-1-1--3-3-3--1-1-1-1--3-3-3-
E-------------------------------------

then end with a slide
Comments