The Rocket Summer - Thats So You Chords & Tabs

 

Thats So You Chords & Tabs

The Rocket Summer Chords & Tabs

Version: 1 Type: Tab 0 ratings
1 star 2 stars 3 stars 4 stars 5 stars
comments

Thats So You Tab

The Rocket Summer - That's So You
tabbed by Alden Velez #2
alden02@hotmail.com
Cal State Fullerton REPRESENT!!!

Whoa! This is a great song. My tabbing isn't perfect but I think
for the most part, it is correct. It should be enough for all you 
fellas to play so all the chicks think you're dope sh*t. Get
some action satisfaction.
"cuz I bring it fonky like"

Capo 1st fret

 It's a beautiful day....
e-------3---3---3-----3-----0------0-----0-----0----------------
b-------1---1---1-----1-----1------1-----1-----3----------------
g---------------------------------------------------------------
d-----2---0---2-------------------------------------------------
a----3---2---0--------------------------------------------------
E------------------3-----1------0-----1-----3-------------------

 Yesterday was a terrible day....
e-------3---3---3-----3-----0-----0-----3-----0-----------------
b-------1---1---1-----1-----1-----1-----3-----3-----------------
g---------------------------------------------------------------
d-----2---0---2-------------------------------------------------
a----3---2---0--------------------------------------------------
E-----------------3------1-----0-----3-----4--------------------

...yoooooou don't know
e------3----3-------3-------3-----------------------------------
b---1--1----1----1--1-----1---0---------------------------------
g---X----0-------0----------------------------------------------
d---2----0-------2----------------------------------------------
a---0----X-------3----------------------------------------------
E--------3-------------1----------------------------------------
[ Tab from: http://www.guitartabs.cc/tabs/t/the_rocket_summer/thats_so_you_tab.html ]
...pleeeease don't go
e------3----3-------3--------0----------------------------------
b---1--1----1----1--1-----1--1--0-------------------------------
g---X----0-------0----------------------------------------------
d---2----0-------2----------------------------------------------
a---0----X-------3----------------------------------------------
E--------3-------------1----------------------------------------

...you're so wonderful
e------3----3---------------3-----3-----3-----------------------
b---1--1----1-------1-------1-----1-----1-----------------------
g---X----0----------0-------0-----2-----0-----------------------
d---2----0---------------2--------3-----0-----------------------
a---0----X-------3----------------------X-----------------------
E--------3------------------------------3-----------------------

 You...oh you
e---3----3-----3-----3------------------------------------------
b---1----1-----1-----1------------------------------------------
g---0----2-----2-----0------------------------------------------
d---X----2-----3-----0------------------------------------------
a---3----0-----------X------------------------------------------
E--------------------3------------------------------------------

 (they're so)...yoooooou
e-------3------3------3------3-------0--------0----3-------------
b-------1------1------1------1-----1---0------3----1-------------
g--------------------------------------------------0-----(0)-----
d----2------0------2-------------------------------X-------------
a---3------2------0-------2----------------2-------3--(3)---(3)--
E------------------------3------1---------3----------------------

 So thanks....
e---3----2----3----3----
b---1----1----1----1----
g---2----2----X----0----  2xs
d---2----0----3----0----
a---0--------------X----
E------------------3----

 Whoa yooooou...
e---3---3-3-3---3-3-3-3---3----
b---1---1-1-1---1-1-1-1---1----
g---0---0-0-X---0-0-0-2---0---- 4xs
d---X---X-X-2---X-X-X-3---0----
a---3---2-3-0---3-2-3-----X----
E-------------------------3----


END (That's so) Yoooooouu
            e---3--------
            b---1--------
            g---0--------
            d---X--------
            a---3--------
            E------------


That's bout it. Email me for any corrections. ENJOY!
Comments