The Rock N Roll Worship Circus - Telephone Chords & Tabs

 

Telephone Chords & Tabs

The Rock N Roll Worship Circus Chords & Tabs

Version: 1 Type: Tab

Telephone Tab

   
Telephone
The Rock n Roll Worship Circus
CD: The Rock n Roll Worship Circus
*2002 Integrityís Hosanna!
Music/ASCAP
Transcribed by: Geoff M.

Regular tuning

There is another tab for this song posted, but it
only has the chords.  Iíve tabbed out the intro to
both guitars and put in the counting so you can play
it correctly.  E-mail me at guitarist4jesus@juno.com
if you have any questions or comments.

	Key
        ^=Bend up ľ step
[ Tab from: http://www.guitartabs.cc/tabs/t/the_rock_n_roll_worship_circus/telephone_tab.html ]
Gtr. 1
-----------------|-----------------|-----------------|-----------------|
-----------------|-----------------|-----------------|-----------------|
-----------------|-----------------|-----------------|-----------------|
-------2---2---2-|-4^--4^--4^--4^--|-------2---2---2-|-4^--4^--4^2-----|
-2-2-4-------4---|-----------------|-2-2-4-------4---|-------------4---|
-0-0-------------|-----------------|-0-0-------------|-----------------|
 1 & 2 & 3 & 4 &   1 & 2 & 3 & 4 &   1 & 2 & 3 & 4 &   1 & 2 & 3 & 4 &

Gtr. 2
-----------------|-----------------|-----0-----0-----|---0---3-0-----0-|
-----------------|-----------------|-------3^----0---|-----0-----0-3---|
-----------------|-----------------|-0-1-----------2^|-----------------|
-----------------|-----------------|-----------------|-----------------|
-----------------|-----------------|-----------------|-----------------|
-----------------|-----------------|-----------------|-----------------|
 1 & 2 & 3 & 4 &   1 & 2 & 3 & 4 &   1 & 2 & 3 & 4 &   1 & 2 & 3 & 4 &

Verse
 E A

Chorus
 F# D A
 E F# D A

Verse 2
 E A

Chorus
 F# D A
 E F# D A

Intro

Solo (play chorus chords)

Chorus

Play the last line of the chorus
A couple more times.