The Rival Mob - Thought Control Chords & Tabs

 

Thought Control Chords & Tabs

The Rival Mob Chords & Tabs

Version: 1 Type: Tab 0 ratings
1 star 2 stars 3 stars 4 stars 5 stars
comments

Thought Control Tab

-------------------------------------------------------------------------------
                             THOUGHT CONTROL - The Rival Mob
-------------------------------------------------------------------------------

Thought Control
The Rival Mob
Mob Justice
Revelation Records

http://www.revelationrecords.com/band/191

Tuning: Standard

INTRO
e|---------------------------------------------------------------------------|
B|---------------------------------------------------------------------------|
G|---------------------------------------------------------------------------|
D|-6-666-6-666-6-6-6----6----------6-5-2-6----------6-5-2--------------------|
A|-6-666-6-666-6-6-6----6----------6-5-2-6----------6-5-2--------------------|
E|-4-444-4-444-4-4-4----4----------4-3-0-4----------4-3-0--------------------|
[ Tab from: http://www.guitartabs.cc/tabs/t/the_rival_mob/thought_control_tab.html ]
VERSE
e|---------------------------------------------------------------------------|
B|---------------------------------------------------------------------------|
G|------------6-7--7-7--7-7-7-7--9--9-9-9-6-6-6-7--7-7-7-7-7-7-7-------------|
D|-6--6-6-6-4-6-7--7-7--7-7-7-7--9--9-9-9-6-6-6-7--7-7-7-7-7-7-7-------------|
A|-6--6-6-6-4-4-5--5-5--5-5-5-5--7--7-7-7-4-4-4-5--5-5-5-5-5-5-5-------------|
E|-4--4-4-4-2----------------------------------------------------------------| 
                                                                               x2
e|---------------------------------------------------------------------------|
B|---------------------------------------------------------------------------|
G|------------6-7--7-7--7-7-7-7-6--6-6-6-------------------------------------|
D|-6--6-6-6-4-6-7--7-7--7-7-7-7-6--6-6-6--7-9--9-9-9-9-9-9-9-----------------|
A|-6--6-6-6-4-4-5--5-5--5-5-5-5-4--4-4-4--7-9--9-9-9-9-9-9-9-----------------|
E|-4--4-4-4-2-----------------------------5-7--7-7-7-7-7-7-7-----------------|

CHORUS
e|---------------------------------------------------------------------------|
B|---------------------------------------------------------------------------|
G|---------------------------------------------------------------------------|
D|-6--5--2--6--7--9-6--------6--5--2--6--7--9-4----6-7-----------------------| x2
A|-6--5--2--6--7--9-6--------6--5--2--6--7--9-4----6-7-----------------------|
E|-4--3--0--4--5--7-4--------4--3--0--4--5--7-2----4-5-----------------------|

INTRO x1
VERSE x2
CHORUS x2

At end of last chorus repeat this once
e|------------|
B|------------|
G|------------|
D|-4----6-7---|
A|-4----6-7---|
E|-2----4-5---|

BREAKDOWN/OUTRO
e|---------------------------------------------------------------------------|
B|---------------------------------------------------------------------------|
G|---------------------------------------------------------------------------| 
D|-6----9--4-6-----6-9-10-----12--10-9---------------------------------------| x6
A|-6----9--4-6-----6-9-10-----12--10-9---------------------------------------|
E|-4----7--2-4-----4-7-8------10--8--7---------------------------------------|

END ON (bass/drums plays till fade out)
e|---------------------------------------------------------------------------|
B|---------------------------------------------------------------------------|
G|---------------------------------------------------------------------------|
D|-6-------------------------------------------------------------------------|
A|-6-------------------------------------------------------------------------|
E|-4-------------------------------------------------------------------------|
Comments