The Riptides - We Hate Your Guts Chords & Tabs

 

We Hate Your Guts Chords & Tabs

The Riptides Chords & Tabs

Version: 1 Type: Tab 0 ratings
1 star 2 stars 3 stars 4 stars 5 stars
comments

We Hate Your Guts Tab

Band: The Riptides
Song: We Hate Your Guts
Album: Appetite for Rejection
Label: Goblin Records
Tabbed by: Donny Talent

VERSE:
e|-----------------------------------------------------------------------|
B|-----------------------------------------------------------------------|
G|----------9-9-9-9--7-7-7-7-7-7-7-7-----------9-9-9-9--7-7-7-7-7-7-7-7--|
D|-7-7-7-7--9-9-9-9--7-7-7-7-7-7-7-7--7-7-7-7--9-9-9-9--7-7-7-7-7-7-7-7--|
A|-7-7-7-7--7-7-7-7--5-5-5-5-5-5-5-5--7-7-7-7--7-7-7-7--5-5-5-5-5-5-5-5--|
E|-5-5-5-5----------------------------5-5-5-5----------------------------|

e|--------------------------------------------------------------------------|
B|--------------------------------------------------------------------------|
G|----------9-9-9-9--11-11--9-9--7-7-7-7-----------9-9-9-9--7-7-7-7-7-7-7-7-|X4
D|-7-7-7-7--9-9-9-9--11-11--9-9--7-7-7-7--7-7-7-7--9-9-9-9--7-7-7-7-7-7-7-7-|
A|-7-7-7-7--7-7-7-7---9--9--7-7--5-5-5-5--7-7-7-7--7-7-7-7--5-5-5-5-5-5-5-5-|
E|-5-5-5-5--------------------------------5-5-5-5---------------------------|
[ Tab from: http://www.guitartabs.cc/tabs/t/the_riptides/we_hate_your_guts_tab.html ]
CHORUS:
e|-----------------------------------------------------------------------------|
B|-----------------------------------------------------------------------------|
G|-7-7-7-7-7-7-7-7-----------7-7-7-7-7-7-7-7-----------7-7-7-7-7-7-7-7---------|
D|-7-7-7-7-7-7-7-7--7--7--7--7-7-7-7-7-7-7-7--7--7--7--7-7-7-7-7-7-7-7--7--7--7|
A|-5-5-5-5-5-5-5-5--7--7--7--5-5-5-5-5-5-5-5--7--7--7--5-5-5-5-5-5-5-5--7--7--7|
E|------------------5--5--5-------------------5--5--5-------------------5--5--5|

e|----------------------------------|
B|----------------------------------|
G|-9-9-9-9-9-9-9-9-9-9-9-9-9-9-9-9--|X1
D|-9-9-9-9-9-9-9-9-9-9-9-9-9-9-9-9--|
A|-7-7-7-7-7-7-7-7-7-7-7-7-7-7-7-7--|
E|----------------------------------|

VERSE X1

SOLO:
e|------------------------------------------------------------------------------|
B|----------------------------------------------------10-9---10-9---10-9---10-9-|
G|-----------------------------------------6-7-9-7-9-7----9------9------9------9|
D|-7-7-7-7-9-7-6-7----------------6-7-9-7-9-------------------------------------|
A|------------------9--7--7-7-7-9-----------------------------------------------|
E|------------------------------------------------------------------------------|

e|----------------------^----------------------------------------------------|
B|-9h10p9h10p9h10p9h10-10-10-------------------------------------------------|
G|---------------------------------------------------------------------------|
D|---------------------------------------------------------------------------|
A|---------------------------------------------------------------------------|
E|---------------------------------------------------------------------------|

CHORUS X1

VERSE X1

OUTRO:
e|----------------------|
B|----------------------|
G|-7--7--7-7-7-7-7-7----|
D|-7--7--7-7-7-7-7-7--7-|
A|-5--5--5-5-5-5-5-5--7-|
E|--------------------5-|

The End.  That was the easiest solo in the world to figure out.

Donny Talent: point_blanc99@hotmail.com
Comments