The Riptides - Dawn Of The Dead Chords & Tabs

 

Dawn Of The Dead Chords & Tabs

The Riptides Chords & Tabs

Version: 1 Type: Tab 0 ratings
1 star 2 stars 3 stars 4 stars 5 stars
comments

Dawn Of The Dead Tab

Artist: The Riptides
Song: Dawn of the Dead
Album: Appetite for Rejection
Label: Goblin Records
Tabbed by: Donny Talent

INTRO:
Guitar 1:
e|------------------------------------------------------------------|
B|-------------------------5-5------------------------------5-5-----|
G|-4h6-6-6-6-6-6-6-4h6-6-6-----4-4--4h6-6-6-6-6-6-6-4h6-6-6-----4-4-|X2
D|------------------------------------------------------------------|
A|------------------------------------------------------------------|
E|------------------------------------------------------------------|

Guitar 2:
e|-------------------------------------------------------------|
B|-------------------------------------------------------------|
G|-6--------------------------------6--------------------------|X2
D|-6---------------7-------9--------6---------------7-------9--|
A|-4---------------7-------9--------4---------------7-------9--|
E|-----------------5-------7------------------------5-------7--|

VERSE:
e|----------------------------------------------------|
B|----------------------------------------------------|
G|-6-6-6-6-6-6-6-6------------------------------------|X3
D|-6-6-6-6-6-6-6-6-------7-7-7-7-----------9-9-9-9----|
A|-4-4-4-4-4-4-4-4-------7-7-7-7-----------9-9-9-9----|
E|-----------------------5-5-5-5-----------7-7-7-7----|
[ Tab from: http://www.guitartabs.cc/tabs/t/the_riptides/dawn_of_the_dead_tab.html ]
(on fourth time):
e|----------------------------------------------|
B|----------------------------------------------|
G|----------------------------------------------|
D|-6-6-6-6-6-6-6-6--------7-7-7-7------9-9-9-9--|
A|-6-6-6-6-6-6-6-6--------7-7-7-7------9-9-9-9--|
E|-4-4-4-4-4-4-4-4--------5-5-5-5------7-7-7-7--|
    
CHORUS:    
e|------------------------------------------------------------------------|
B|------------------------------------------------------------------------|
G|-6--------------6-----------------6-------------------------------------|X2
D|-6-7-9-6--------6-7-9-6-----------6-7-9-6-----------7-7-7-7--9-9-9-9----|
A|-4-7-9-6--------4-7-9-6-----------4-7-9-6-----------7-7-7-7--9-9-9-9----|
E|---5-7-4----------5-7-4-------------5-7-4-----------5-5-5-5--7-7-7-7----|

INTRO (X1)

VERSE:

CHORUS

INTRO (X1)

BRIDGE:   
e|---------------------------------------------------------------------------|
B|---------------------------------------------------------------------------|
G|---------------------------------------------------------------------------|
D|-7-7-7-7-7-7-7-7--9-9-9-9-9-9-9-9--7-7-7-7-7-7-7-7--6-6-6-6-6-6-6-6--------|
A|-7-7-7-7-7-7-7-7--9-9-9-9-9-9-9-9--7-7-7-7-7-7-7-7--6-6-6-6-6-6-6-6--------|
E|-5-5-5-5-5-5-5-5--7-7-7-7-7-7-7-7--5-5-5-5-5-5-5-5--4-4-4-4-4-4-4-4--------|

VERSE

CHORUS

OUTRO:  Play intro X8

The end.  The timing is off but if you're not an idiot you can easily figure it out.

Donny Talent: point_blanc99@hotmail.com 
Comments