The Reverend Horton Heat - Crooked Cigarette Chords & Tabs

 

Crooked Cigarette Chords & Tabs

The Reverend Horton Heat Chords & Tabs

Version: 1 Type: Tab 0 ratings
1 star 2 stars 3 stars 4 stars 5 stars
comments

Crooked Cigarette Tab

Crooked Cigarette - The Reverend Horton Heat
tabbed by Caris (break_so_easily@yahoo.com)

This is a great song by the greasy kings of psychobilly. Enjoy.
[ Tab from: http://www.guitartabs.cc/tabs/t/the_reverend_horton_heat/crooked_cigarette_tab.html ]
Verse:
e----------------------------
B--------0-----0---3-3-2-----
G------3-----3---3-----------
D----------------------------
A---3------------------------
E-0--------0-----------------

Chorus:
e----------------
B----------1-----
G-2-----2--0-----
D-2--2--2--2-2---
A-0--2--0--3-----
E----0-----0-----

Beginning notes of solo:
e---------------------
B--2~----2~----2~-----
G-----3~----3~----3~--
D---------------------
A---------------------
E---------------------
Comments