The Refreshments - K O T H Theme Song Chords & Tabs

 

K O T H Theme Song Chords & Tabs

The Refreshments Chords & Tabs

Version: 1 Type: Tab 0 ratings
1 star 2 stars 3 stars 4 stars 5 stars
comments

K O T H Theme Song Tab

KING OF THE HILL THEME SONG BY THE REFRESHMENTS>>
tabs by:TENACIOUS CHUCK

I'm about 90% sure that this tab is accurate.

[ Tab from: http://www.guitartabs.cc/tabs/t/the_refreshments/k_o_t_h_theme_song_tab.html ]
E----------------------------------------------
B----------------------------------------------
G----------------------------------------------
D----------------------------------------------
A---------------00-4-2----------------00-------
E--0000-4--0000-------00000--4--00000--442242--

D------------------------22--------------------
A------------0000-4-2-------44--22-00-----0----
E---0000-400---------------------------44---20-

And thats it.



Comments