The Redwalls - Glory Of War Chords & Tabs

 

Glory Of War Chords & Tabs

The Redwalls Chords & Tabs

Version: 1 Type: Tab 0 ratings
1 star 2 stars 3 stars 4 stars 5 stars
comments

Glory Of War Tab

The Redwalls
Glory of War
Standard Tuning
Tabbed By: Jerald Ramos
Probabilty of correctness is 99.9%

1, 2, 3, 4... [E]        

[E]If we hadn't won the war 
and I was [A]calling all the shots 
and what I believe was [E]done 

[E]If we hadn't sent em' there to [A]die 
[B]you'd be sure that we'd be doing it [E]again 

[E]So let the union stand alone to be it 
[A]while alone my brothers singing 
[B7]This is the glory of [E]war... 

[E]Though no man picks his birth 
No[A]body he'd be tied 
and for it he must hold the [E]line 

[E]I guess some men been born to [A]die 
cause [B]livin' wasnt up to [E]them 

[E]So though we're all be born as brothers 
[A]living just to kill each other 
[B7]This is the glory of [E]war... 
|-------------7~---4-7~----5--9----5--9~~---------5--9~-------7-4~--------|
|--5--7--9-----------------------------------------------------------7-5~-|
|-------------------------------------------------------------------------|
|-------------------------------------------------------------------------|
|-------------------------------------------------------------------------|
|-------------------------------------------------------------------------|
[ Tab from: http://www.guitartabs.cc/tabs/t/the_redwalls/glory_of_war_tab.html ]
|-----7~-------5-4-5----9~-----------7-5-7~-----------5-4-0~~~------------|
|---7---------------------------------------------------------------------|
|-------------------------------------------------------------------------|
|-------------------------------------------------------------------------|
|-------------------------------------------------------------------------|
|-------------------------------------------------------------------------|


[E]If our flag was waving free 
and we'd [A]marching all the way 
For what? I doubt they [E]knew 

[E]If we hadnt lost a gene[A]ration 
[B]you'd be sure that we'd be losing one [E]again 

[E]So let them all go down for nothing 
[A]and watch that blood keep coming 
[B7]This is the glory of [E]war... 

[E]So let the union stand alone to see it 
[A]while all my brothers screaming 
[B7]This is the glory of [E]war...

You can choose to play this whenever it is played or just play the chords.
|-----0---0---0-0----0-0-0--------|----------0---0---0-0---0-0-0----------|
|-----0---0---0-0----0-0-0--------|----------2---2---2-2---2-0-2----------|
|-----1---1---1-1----1-0-1--------|----------2---2---2-2---2-2-2----------|
|-----2---2---2-2----2-2-2--------|----------2---2---2-2---2-2-2----------|
|-----2---2---2-2----2-2-2--------|----------0---0---0-0---0-0-0----------|
|-----0---0---0-0----0------------|---------------------------------------|

Comments