The Red Elvises - I Want To See You Belly Dance Chords & Tabs

 

I Want To See You Belly Dance Chords & Tabs

The Red Elvises Chords & Tabs

Version: 1 Type: Tab 0 ratings
1 star 2 stars 3 stars 4 stars 5 stars
comments

I Want To See You Belly Dance Tab

   
#----------------------------------PLEASE NOTE---------------------------------#
#This file is the author's own work and represents their interpretation of the #
#song. You may only use this file for private study, scholarship, or research. #
#------------------------------------------------------------------------------#
Artist:     The Red Elvises
album:      Live at the Great American Hall of Music 
somg:       I want to see you Bellydance
scales:     Spanish Gypsy
Tabbed by:  Mister Person
Date:       1/19/05

Tab symbols
--3~~------------Vabrato on specified note
--9p8------------Pull off from the ninth fret to the eighth fret
--8h9------------hammer on to the ninth fret from the eighth fret
--2(3)-----------One-half bend; bend up one half-step (one fret)
--(3)2-----------Pre bend and releas, one half-step.
--2(4)-----------Full bend; bend one full-step (two frets)
--2/5------------Slide up form specified fret to other specifed fret
--5\2------------Slid down from specified from to other specified fret
--3|||-----------Tremelo picking; very fast alternate picking
--///15--or--/15-slide up from nowhere; slide up from unspecified point below the 15th fret   
--15\\\--or--15\-slide down to nowhere; slide down to unspecified point below the 15th fret
--T9p0h5---------Tap string with picking hard at ninth fret
..PM.............Palm mute
  PH             Pinch harmonic
  NH             Natuaral harmonic
  R              Rake; play note of ajasent string with oune pick motion

I wanna see you bellydance.
This song is very diffigult to play as Zenya has a slid on his pinky (I believe it is
one that only cogers the first joint)  and uses it on sertain notes but some how doesn't
let it get int he way whe he isn't using it.  You can play this song without the slid
and it sounds good too.  I put an S over the notes I believe are played with a alide.     

e|---------------------------------------------------------------------------------------|
b|---------------------------------------------------------------------------------------|
g|---------------------------------------------------------------------------------------|
d|---------------------------------------------------------------------------------------|
a|---------------------------------6-7-6h7p6-------------------------6-7-6h7p6---6-------|
e|-777777-7-5-777777-7-5-777777-7-8---------8-7-777777-7-5-777777-7-8---------8-7-8-7-7~~|

e|-----------------------------------------------------------------------------------|
b|-----------------------------------------------------------------------------------|
g|-----------------------------------------------------------------------------------|
d|-----------------------------------------------------------------------------------|
a|----------------------------------6-7-6h7p6--------6-7-6-6-7-6-6h7p6-----6-7-6-----|
e|-777777-7-5-777777-7-5-777777-7-8----------8-7--7-8-----8-----8-----8-7-8-----8-7--|

e|------------------------------------------------------------|
b|------------------------------------------------------------|
g|------------------------------------------------------------|
d|------------------------------------------------------------|
a|------------------------------------------------------------|
e|-(7)---------------------------------------------------(7)--|

e|-77--7--x-x-x-x-77-7--x-7-x-7-x-x-x-x----------------------------------------|
b|-77--7--x-x-x-x-77-7--x-7-x-7-x-x-x-x----------------------------------------|
g|-88--8--x-x-x-x-88-8--x-8-x-8-x-x-x-x----------------------------------------|
d|-99--9--x-x-x-x-99-9--x-9-x-9-x-x-x-x----------------------------------------|
a|-99--9--x-x-x-x-99-9--x-9-x-9-x-x-x-x------------------6-7-6h7p6-6-----------|
e|-77--7--x-x-x-x-77-7--x-7-x-7-x-x-x-x--5-7~~--------7-8---------8-8-7--5-7~~-|

e|----------------------------------------------------------|
b|----------------------------------------------------------|
g|----------------------------------------------------------|
d|----------------------------------------------------------|
a|---------------6-7-6h7p6---6------------------------------|
e|-7~~--------7-8---------8-7-8-7--5-7~~--------------------|

                           S          S  S            (S)
e|--7--|--7--|--7----------------------------------------|
b|--7--|--7--|--7----------------------------------------|
g|--8--|--8--|--8----------------------------------------|
d|--9--|--9--|--9----------------------------------------|
a|--9--|--9--|--9---------7~~~~~/9--/9-/9~~~~~-------(9)-|
e|--7--|--7--|--7----------------------------------------|

            S       S                S S S S S S      S  S
e|---------------------------------------------------------------------|
b|---------------------------------------------------------------------|
g|-----8-9-/11~~~-/11-9-8h9p8----------8---9---11~~~-/12-11-8h9p8------|
d|-9h10----------------------10-9----9---9---9-------------------10-9--|
a|---------------------------------------------------------------------|
e|---------------------------------------------------------------------|

            S      S  S             S
e|-----------------------------------------------------------|
b|---------------------------------/10-8-7-------------------|
g|-----8-9-/11~~~-/11-9-8h9p8-----------9-8--8---------------|
d|-9h10-----------------------10-9---------10-10-9-7-9-10-9--|
a|-----------------------------------------------------------|
e|-----------------------------------------------------------|

e|--------------------------------------------------|
b|--------7--8-7--------------------7--10-8-7-7-----|
g|-----8-9------9-8--8-----------8-9---------9-9-8--|
d|-9h10------------10-10-----9h10-------------------|
a|--------------------------------------------------|
e|--------------------------------------------------|

   S S S S S S   S   
e|--------------------------------------------|
b|-----------7--/10-8-7-7---------------------|
g|---8---9-------------9-9-8--8---------------|
d|-9---9---9----------------10-10-9-7-9-10-9--|
a|--------------------------------------------|
e|--------------------------------------------|

  
                                 S
e|-----------------------7-8-7-8-11-8-7-|
b|---------------7-8-7-8----------------|
g|--------8-9-8-9-----------------------|
d|-10-9-10------------------------------|
a|--------------------------------------|
e|--------------------------------------|
   
      S
e|-12/14-12-11--11------------11-12-11--------------------|
b|------------13--13-12--12-13--------13-12--12-13-12~~\--|
g|---------------------14------------------14-------------|
d|--------------------------------------------------------|
a|--------------------------------------------------------|
e|--------------------------------------------------------|


These riff are played ove the verse with slight variation in the chord strumming.
  /-------riff over-B---------\ /--------riff over-E--------\
e|-----------------------------|-----------------------------|
b|----------x-7----x-7----x-7--|----------x-9----x-9----x-9--|
g|----------x-8----x-8----x-8--|----------x-9----x-9----x-9--|
d|----------x-9----x-9----x-9--|---5-6-7--x-9----x-9----x-9--|
a|---5-6-7--x-9----x-9----x-9--|-7--------x-7----x-7----x-7--|
e|-7--------x-7----x-7----x-7--|-----------------------------|

B
She says hello form Estonbull
B
She made some dough in Estonbull
E
There an't no snow in Estonbull
B
And everybody's having fun

[ Tab from: http://www.guitartabs.cc/tabs/t/the_red_elvises/i_want_to_see_you_belly_dance_tab.html ]
B
The boys are cool in Estonbull
B
There's lots of pool in Estonbull
E
I wish I waas in Estonbull
B
With everybody grooving in the sun

And then the Chorus with these chord phrsese
   /---Riff over-A---\   /---Riff-over-D---\
e|---------------------|---------------------|
b|---------------------|---------------------|
g|---------------------|-2-2-4-5--2-2-4-5--2-|
d|-2-2-4-5--2-2-4-5--2-|-0-0-0-0--0-0-0-0--0-|
a|-0-0-0-0--0-0-0-0--0-|---------------------|
e|---------------------|---------------------|

A
I wanna see you belly dance
A
I wanna see you belly dance
D
I wanna see you belly dance
A
I wanna see you belly dance


            S       S                S S S S S S      S  S
e|---------------------------------------------------------------------|
b|---------------------------------------------------------------------|
g|-----8-9-/11~~~-/11-9-8h9p8----------8---9---11~~~-/12-11-8h9p8------|
d|-9h10----------------------10-9----9---9---9-------------------10-9--|
a|---------------------------------------------------------------------|
e|---------------------------------------------------------------------|

            S      S  S             S
e|---------------------------------------------------------------|
b|---------------------------------/10-8-7-----------------------|
g|-----8-9-/11~~~-/11-9-8h9p8-----------9-8--8-9-8---------------|
d|-9h10-----------------------10-9---------10-----10-9-7-9-10-9--|
a|---------------------------------------------------------------|
e|---------------------------------------------------------------|
e|---------------------------------------------------------------|

Repeat "I wanna see you bellydance" Chorus and then:

          S   S                          S              (S)
e|---------------------------------------------------------------|
b|---------------------------------------------------------------|
g|---------------------------------------------------------------|
d|---------------------------------------------------------------|
a|----7--/9~~-9-7-6h7p6--------------7--/9~~------------(9)~~~~--|
e|-7h8-5---------------8-7--------7h8-5--------------------------|

          S   S                          S              (S)
e|---------------------------------------------------------------|
b|---------------------------------------------------------------|
g|---------------------------------------------------------------|
d|---------------------------------------------------------------|
a|----7--/9~~-9-7-6h7p6--------------7--/9~~------------(9)~~~~--|
e|-7h8-5---------------8-7--------7h8-5--------------------------|

    S
e|-----------------------------------------------|
b|-/10-8-7-7-------------------------------------|
g|--------9-9-8--8-----------8-9-8---------------|
d|-------------10-10-9-7-9-10-----10-9-7-9-10-9--|
a|-----------------------------------------------|
e|-----------------------------------------------|

                                       S
e|--------7------7----------7------7--------------------------|
b|--------7------7----------7------7--/10~~-8-7---------------|
g|--------8------8----------8------8------------9-8-----------|
d|--------9------9----------9------9----------------10-9~~----|
a|----7---9------9------7---9------9--------------------------|
e|-7h8-5--7------7---7h8-5--7------7--------------------------|

Repeat the Chorus once again before this:

This is reapeated 4 times and then is played as the rythm for the lead work that follows
e|--------------------|
b|-7--8--7--7-77-8-\7-|
g|-8--9--8--8-88-9-\8-|
d|-9--10-9--9-99-10\9-|
a|--------------------|
e|--------------------|

  /-----------all-notes-played-with-slide----------------\
e|--------------------------------------------------------|
b|--------------------------------------------------------|
g|--------------------------------------------------------|
d|-7/9--/9--/9--/9/10\9/10/13--/13--/13--/13/14\13/14/16--|
a|--------------------------------------------------------|
e|--------------------------------------------------------|

  /---------all-notes-played-with-slide--------\
e|----------------------------------------------|
b|----------------------------------------------|
g|----------------------------------------------|
d|-/16--/16--/16/17\16/17/19--/19--/19--/19---\-|
a|----------------------------------------------|
e|----------------------------------------------|

e|--------------------------------------------------|
b|--------7--8-7--------------------7--10-8-7-7-----|
g|-----8-9------9-8--8-----------8-9---------9-9-8--|
d|-9h10------------10-10-----9h10-------------------|
a|--------------------------------------------------|
e|--------------------------------------------------|

                 S
e|--------------------------------------------|
b|-----------7--/10-8-7-7---------------------|
g|---8---9-------------9-9-8--8---------------|
d|-9---9---9----------------10-10-9-7-9-10-9--|
a|--------------------------------------------|
e|--------------------------------------------|
                                 
e|-----------------------7-8-7-8-11-8-7--|
b|---------------7-8-7-8-----------------|
g|--------8-9-8-9------------------------|
d|-10-9-10-------------------------------|
a|---------------------------------------|
e|---------------------------------------|
   
    S
e|-12/14-12-11--11------------11-12-11--------------------|
b|------------13--13-12--12-13--------13-12--12-13-12~~\--|
g|---------------------14------------------14-------------|
d|--------------------------------------------------------|
a|--------------------------------------------------------|
e|--------------------------------------------------------|

            S              S  S   S
e|-------------------------------------------------------------|
b|-------------------------------/10-8-7-7---------------------|
g|--------------------------------------9-9-8--8---------------|
d|-----8-9-/11-9-8h9p8----/11/11-------------10-10-9-7-9-10-9--|
a|-9-10---------------10-9-------------------------------------|
e|-------------------------------------------------------------|

    S       S
e|-----------------------------------------------------------|
b|-/10-8-7-/10-8-7-7-----------------------------------------|
g|----------------9-9-8-----------8h9p8-----------8h9p8------|
d|---------------------10-9-7-9-10-----10-9-7-9-10-----10-9--|
a|-----------------------------------------------------------|
e|-----------------------------------------------------------|

           S  S              S S S S S S    S S
e|----------------------------------------------------------|
b|----------------------------------------------------------|
g|-----------------------------8---9---11--12-11-8h9p8------|
d|---------------------------9---9---9----------------10-9--|
a|----6-7-/9--9-7-6h7p6-------------------------------------|
e|-7-8-----------------8-7----------------------------------|

           S  
e|-------------------------------------------------------|
b|-------------------------------------------------------|
g|-------------------------------------------------------|
d|-------------------------------------------------------|
a|----6-7-/9--9-7-6h7p6----------------------------------|
e|-7-8-----------------8-7-8758758758758758~~------------|

           S  S
e|-----------------------------------7---|
b|-----------------------------------7---|
g|-----------------------------------8---|
d|-----------------------------------9---|
a|----6-7-/9--9-7-6------------------9---|
e|-7-8-------------8-7--7--5-5-3-2-0-7---|

Simply beautiful...
Comments