The Rasmus - In The Shadows Chords & Tabs

 

In The Shadows Chords & Tabs

The Rasmus Chords & Tabs

Version: 5 Type: Tab 0 ratings
1 star 2 stars 3 stars 4 stars 5 stars
comments

In The Shadows Tab

   
#----------------------------------PLEASE NOTE---------------------------------#
#This file is the author's own work and represents their interpretation of the #
#song. You may only use this file for private study, scholarship, or research. #
#------------------------------------------------------------------------------#

===========================-
 The Rasmus - In The Shadows
-===========================-

Artist-The Rasmus
Song-In The Shadows
Tabbed By-Clayton Botha
e-Mail-theno69@hotmail.com
Tuning-Standard
Notes-This is such a fun song to play, the intro 
could be played in various ways ie. instead
of 5 on the E-String you could play 0 on the
A-String! Whatever floats your boat... ENJOY!

 -=Intro=-
e||---------------------------------------------------------||
B||---------------------------------------------------------||
G||---------------------------------------------------------||
D||---------------------------------------------------------||
A||-5-5-5-7-5-4-------------------4-5-7-5-4-----------------||
E||-------------5-2-2-2-2-0-2-5-7-----------5-2-2-4-4-5-5-7-||
[ Tab from: http://www.guitartabs.cc/tabs/t/the_rasmus/in_the_shadows_tab_ver_5.html ]
e||---------------------------------------------------------||
B||---------------------------------------------------------||
G||---------------------------------------------------------||
D||---------------------------------------------------------||
A||-5-5-5-7-5-4-------------------4-5-7-5-4---------7---4---||
E||-------------5-2-2-2-2-0-2-5-7-----------5-2-4-5---5---5-||

e||---------------------------------------------------------||
B||---------------------------------------------------------||
G||---------------------------------------------------------||
D||---------------------------------------------------------||
A||-5-5-5-7-5-4-------------------4-5-7-5-4-----------------||
E||-------------5-2-2-2-2-0-2-5-7-----------5-2-2-2-2-2-2-2-||

 -=Verse=-
e||---------------------------------||
B||---------------------------------||
G||---------------------------------||
D||---------------------------------||
A||-5-5-5-5---------2-2-2-2---------||
E||---------2-2-2-2---------2-2-2-2-||

 -=Bridge=-
e||-----------------------------||
B||-----------------------------||
G||-----------------------------||
D||-4--3--2---------------------||
A||-4--3--2---------------------||
E||-2--1--0---------------------||

 -=Chorus=-
e||---------------------------------||
B||---------------------------------||
G||-7-7-7-7---------4-4-4-4---------||
D||-7-7-7-7-4-4-4-4-4-4-4-4-4-4-4-4-||
A||-5-5-5-5-4-4-4-4-2-2-2-2-4-4-4-4-||
E||---------2-2-2-2---------2-2-2-2-||




-====================================================================-
 Thanks for viewing my tab! Any questions, comments or death treats??
 I'm open to all corrections so please e-mail me: theno69@hotmail.com
-====================================================================-
Comments